  0
SECTION
  2
HEADER
  9
$ACADVER
  1
AC1021
  9
$ACADMAINTVER
 70
    25
  9
$DWGCODEPAGE
  3
ANSI_1251
  9
$INSBASE
 10
0.0
 20
0.0
 30
0.0
  9
$EXTMIN
 10
1.000000000000000E+20
 20
1.000000000000000E+20
 30
1.000000000000000E+20
  9
$EXTMAX
 10
-1.000000000000000E+20
 20
-1.000000000000000E+20
 30
-1.000000000000000E+20
  9
$LIMMIN
 10
0.0
 20
0.0
  9
$LIMMAX
 10
420.0
 20
297.0
  9
$ORTHOMODE
 70
     0
  9
$REGENMODE
 70
     1
  9
$FILLMODE
 70
     1
  9
$QTEXTMODE
 70
     0
  9
$MIRRTEXT
 70
     1
  9
$LTSCALE
 40
1.0
  9
$ATTMODE
 70
     1
  9
$TEXTSIZE
 40
2.5
  9
$TRACEWID
 40
1.0
  9
$TEXTSTYLE
  7
Standard
  9
$CLAYER
  8
0
  9
$CELTYPE
  6
ByLayer
  9
$CECOLOR
 62
   256
  9
$CELTSCALE
 40
1.0
  9
$DISPSILH
 70
     0
  9
$DIMSCALE
 40
1.0
  9
$DIMASZ
 40
2.5
  9
$DIMEXO
 40
0.625
  9
$DIMDLI
 40
3.75
  9
$DIMRND
 40
0.0
  9
$DIMDLE
 40
0.0
  9
$DIMEXE
 40
1.25
  9
$DIMTP
 40
0.0
  9
$DIMTM
 40
0.0
  9
$DIMTXT
 40
2.5
  9
$DIMCEN
 40
2.5
  9
$DIMTSZ
 40
0.0
  9
$DIMTOL
 70
     0
  9
$DIMLIM
 70
     0
  9
$DIMTIH
 70
     0
  9
$DIMTOH
 70
     0
  9
$DIMSE1
 70
     0
  9
$DIMSE2
 70
     0
  9
$DIMTAD
 70
     1
  9
$DIMZIN
 70
     8
  9
$DIMBLK
  1

  9
$DIMASO
 70
     1
  9
$DIMSHO
 70
     1
  9
$DIMPOST
  1

  9
$DIMAPOST
  1

  9
$DIMALT
 70
     0
  9
$DIMALTD
 70
     3
  9
$DIMALTF
 40
0.03937007874016
  9
$DIMLFAC
 40
1.0
  9
$DIMTOFL
 70
     1
  9
$DIMTVP
 40
0.0
  9
$DIMTIX
 70
     0
  9
$DIMSOXD
 70
     0
  9
$DIMSAH
 70
     0
  9
$DIMBLK1
  1

  9
$DIMBLK2
  1

  9
$DIMSTYLE
  2
ISO-25
  9
$DIMCLRD
 70
     0
  9
$DIMCLRE
 70
     0
  9
$DIMCLRT
 70
     0
  9
$DIMTFAC
 40
1.0
  9
$DIMGAP
 40
0.625
  9
$DIMJUST
 70
     0
  9
$DIMSD1
 70
     0
  9
$DIMSD2
 70
     0
  9
$DIMTOLJ
 70
     0
  9
$DIMTZIN
 70
     8
  9
$DIMALTZ
 70
     0
  9
$DIMALTTZ
 70
     0
  9
$DIMUPT
 70
     0
  9
$DIMDEC
 70
     2
  9
$DIMTDEC
 70
     2
  9
$DIMALTU
 70
     2
  9
$DIMALTTD
 70
     3
  9
$DIMTXSTY
  7
Standard
  9
$DIMAUNIT
 70
     0
  9
$DIMADEC
 70
     0
  9
$DIMALTRND
 40
0.0
  9
$DIMAZIN
 70
     0
  9
$DIMDSEP
 70
    44
  9
$DIMATFIT
 70
     3
  9
$DIMFRAC
 70
     0
  9
$DIMLDRBLK
  1

  9
$DIMLUNIT
 70
     2
  9
$DIMLWD
 70
    -2
  9
$DIMLWE
 70
    -2
  9
$DIMTMOVE
 70
     0
  9
$DIMFXL
 40
1.0
  9
$DIMFXLON
 70
     0
  9
$DIMJOGANG
 40
0.7853981633974483
  9
$DIMTFILL
 70
     0
  9
$DIMTFILLCLR
 70
     0
  9
$DIMARCSYM
 70
     0
  9
$DIMLTYPE
  6

  9
$DIMLTEX1
  6

  9
$DIMLTEX2
  6

  9
$LUNITS
 70
     2
  9
$LUPREC
 70
     4
  9
$SKETCHINC
 40
1.0
  9
$FILLETRAD
 40
10.0
  9
$AUNITS
 70
     0
  9
$AUPREC
 70
     0
  9
$MENU
  1
.
  9
$ELEVATION
 40
0.0
  9
$PELEVATION
 40
0.0
  9
$THICKNESS
 40
0.0
  9
$LIMCHECK
 70
     0
  9
$CHAMFERA
 40
10.0
  9
$CHAMFERB
 40
10.0
  9
$CHAMFERC
 40
20.0
  9
$CHAMFERD
 40
0.0
  9
$SKPOLY
 70
     0
  9
$TDCREATE
 40
2456214.539445706
  9
$TDUCREATE
 40
2456214.372779039
  9
$TDUPDATE
 40
2456214.539445718
  9
$TDUUPDATE
 40
2456214.372779051
  9
$TDINDWG
 40
0.0000000116
  9
$TDUSRTIMER
 40
0.0000000116
  9
$USRTIMER
 70
     1
  9
$ANGBASE
 50
0.0
  9
$ANGDIR
 70
     0
  9
$PDMODE
 70
     0
  9
$PDSIZE
 40
0.0
  9
$PLINEWID
 40
0.0
  9
$SPLFRAME
 70
     0
  9
$SPLINETYPE
 70
     6
  9
$SPLINESEGS
 70
     8
  9
$HANDSEED
  5
136
  9
$SURFTAB1
 70
     6
  9
$SURFTAB2
 70
     6
  9
$SURFTYPE
 70
     6
  9
$SURFU
 70
     6
  9
$SURFV
 70
     6
  9
$UCSBASE
  2

  9
$UCSNAME
  2

  9
$UCSORG
 10
0.0
 20
0.0
 30
0.0
  9
$UCSXDIR
 10
1.0
 20
0.0
 30
0.0
  9
$UCSYDIR
 10
0.0
 20
1.0
 30
0.0
  9
$UCSORTHOREF
  2

  9
$UCSORTHOVIEW
 70
     0
  9
$UCSORGTOP
 10
0.0
 20
0.0
 30
0.0
  9
$UCSORGBOTTOM
 10
0.0
 20
0.0
 30
0.0
  9
$UCSORGLEFT
 10
0.0
 20
0.0
 30
0.0
  9
$UCSORGRIGHT
 10
0.0
 20
0.0
 30
0.0
  9
$UCSORGFRONT
 10
0.0
 20
0.0
 30
0.0
  9
$UCSORGBACK
 10
0.0
 20
0.0
 30
0.0
  9
$PUCSBASE
  2

  9
$PUCSNAME
  2

  9
$PUCSORG
 10
0.0
 20
0.0
 30
0.0
  9
$PUCSXDIR
 10
1.0
 20
0.0
 30
0.0
  9
$PUCSYDIR
 10
0.0
 20
1.0
 30
0.0
  9
$PUCSORTHOREF
  2

  9
$PUCSORTHOVIEW
 70
     0
  9
$PUCSORGTOP
 10
0.0
 20
0.0
 30
0.0
  9
$PUCSORGBOTTOM
 10
0.0
 20
0.0
 30
0.0
  9
$PUCSORGLEFT
 10
0.0
 20
0.0
 30
0.0
  9
$PUCSORGRIGHT
 10
0.0
 20
0.0
 30
0.0
  9
$PUCSORGFRONT
 10
0.0
 20
0.0
 30
0.0
  9
$PUCSORGBACK
 10
0.0
 20
0.0
 30
0.0
  9
$USERI1
 70
     0
  9
$USERI2
 70
     0
  9
$USERI3
 70
     0
  9
$USERI4
 70
     0
  9
$USERI5
 70
     0
  9
$USERR1
 40
0.0
  9
$USERR2
 40
0.0
  9
$USERR3
 40
0.0
  9
$USERR4
 40
0.0
  9
$USERR5
 40
0.0
  9
$WORLDVIEW
 70
     1
  9
$SHADEDGE
 70
     3
  9
$SHADEDIF
 70
    70
  9
$TILEMODE
 70
     1
  9
$MAXACTVP
 70
    64
  9
$PINSBASE
 10
0.0
 20
0.0
 30
0.0
  9
$PLIMCHECK
 70
     0
  9
$PEXTMIN
 10
1.000000000000000E+20
 20
1.000000000000000E+20
 30
1.000000000000000E+20
  9
$PEXTMAX
 10
-1.000000000000000E+20
 20
-1.000000000000000E+20
 30
-1.000000000000000E+20
  9
$PLIMMIN
 10
0.0
 20
0.0
  9
$PLIMMAX
 10
420.0
 20
297.0
  9
$UNITMODE
 70
     0
  9
$VISRETAIN
 70
     1
  9
$PLINEGEN
 70
     0
  9
$PSLTSCALE
 70
     1
  9
$TREEDEPTH
 70
  3020
  9
$CMLSTYLE
  2
Standard
  9
$CMLJUST
 70
     0
  9
$CMLSCALE
 40
20.0
  9
$PROXYGRAPHICS
 70
     1
  9
$MEASUREMENT
 70
     1
  9
$CELWEIGHT
370
    -1
  9
$ENDCAPS
280
     0
  9
$JOINSTYLE
280
     0
  9
$LWDISPLAY
290
     0
  9
$INSUNITS
 70
     4
  9
$HYPERLINKBASE
  1

  9
$STYLESHEET
  1

  9
$XEDIT
290
     1
  9
$CEPSNTYPE
380
     0
  9
$PSTYLEMODE
290
     1
  9
$FINGERPRINTGUID
  2
{9020C2B8-2BBF-4A6A-A8E4-F973011B989E}
  9
$VERSIONGUID
  2
{FAEB1C32-E019-11D5-929B-00C0DF256EC4}
  9
$EXTNAMES
290
     1
  9
$PSVPSCALE
 40
0.0
  9
$OLESTARTUP
290
     0
  9
$SORTENTS
280
   127
  9
$INDEXCTL
280
     0
  9
$HIDETEXT
280
     1
  9
$XCLIPFRAME
290
     0
  9
$HALOGAP
280
     0
  9
$OBSCOLOR
 70
   257
  9
$OBSLTYPE
280
     0
  9
$INTERSECTIONDISPLAY
280
     0
  9
$INTERSECTIONCOLOR
 70
   257
  9
$DIMASSOC
280
     2
  9
$PROJECTNAME
  1

  9
$CAMERADISPLAY
290
     0
  9
$LENSLENGTH
 40
50.0
  9
$CAMERAHEIGHT
 40
0.0
  9
$STEPSPERSEC
 40
2.0
  9
$STEPSIZE
 40
6.0
  9
$3DDWFPREC
 40
2.0
  9
$PSOLWIDTH
 40
5.0
  9
$PSOLHEIGHT
 40
80.0
  9
$LOFTANG1
 40
1.570796326794897
  9
$LOFTANG2
 40
1.570796326794897
  9
$LOFTMAG1
 40
0.0
  9
$LOFTMAG2
 40
0.0
  9
$LOFTPARAM
 70
     7
  9
$LOFTNORMALS
280
     1
  9
$LATITUDE
 40
37.795
  9
$LONGITUDE
 40
-122.394
  9
$NORTHDIRECTION
 40
0.0
  9
$TIMEZONE
 70
 -8000
  9
$LIGHTGLYPHDISPLAY
280
     1
  9
$TILEMODELIGHTSYNCH
280
     1
  9
$SOLIDHIST
280
     1
  9
$SHOWHIST
280
     1
  9
$DWFFRAME
280
     2
  9
$DGNFRAME
280
     2
  9
$REALWORLDSCALE
290
     1
  9
$INTERFERECOLOR
 62
   256
  9
$CSHADOW
280
     0
  9
$SHADOWPLANELOCATION
 40
0.0
  0
ENDSEC
  0
SECTION
  2
CLASSES
  0
CLASS
  1
ACDBDICTIONARYWDFLT
  2
AcDbDictionaryWithDefault
  3
ObjectDBX Classes
 90
        0
 91
        4
280
     0
281
     0
  0
CLASS
  1
VISUALSTYLE
  2
AcDbVisualStyle
  3
ObjectDBX Classes
 90
     4095
 91
        4
280
     0
281
     0
  0
CLASS
  1
MATERIAL
  2
AcDbMaterial
  3
ObjectDBX Classes
 90
     1153
 91
        4
280
     0
281
     0
  0
CLASS
  1
SCALE
  2
AcDbScale
  3
ObjectDBX Classes
 90
     1153
 91
        4
280
     0
281
     0
  0
CLASS
  1
DICTIONARYVAR
  2
AcDbDictionaryVar
  3
ObjectDBX Classes
 90
        0
 91
        4
280
     0
281
     0
  0
ENDSEC
  0
SECTION
  2
TABLES
  0
TABLE
  2
VPORT
  5
8
330
0
100
AcDbSymbolTable
 70
     1
  0
VPORT
  5
29
330
8
100
AcDbSymbolTableRecord
100
AcDbViewportTableRecord
  2
*Active
 70
     0
 10
0.0
 20
0.0
 11
1.0
 21
1.0
 12
304.6243530982743
 22
139.5374765844122
 13
0.0
 23
0.0
 14
10.0
 24
10.0
 15
10.0
 25
10.0
 16
0.0
 26
0.0
 36
1.0
 17
0.0
 27
0.0
 37
0.0
 40
275.6265294998985
 41
2.131242029963306
 42
50.0
 43
0.0
 44
0.0
 50
0.0
 51
0.0
 71
     0
 72
   100
 73
     1
 74
     3
 75
     0
 76
     0
 77
     0
 78
     0
281
     0
 65
     1
110
0.0
120
0.0
130
0.0
111
1.0
121
0.0
131
0.0
112
0.0
122
1.0
132
0.0
 79
     0
146
0.0
 60
     3
 61
     5
292
     1
282
     1
141
0.0
142
0.0
 63
   250
  0
ENDTAB
  0
TABLE
  2
LTYPE
  5
5
330
0
100
AcDbSymbolTable
 70
     3
  0
LTYPE
  5
14
330
5
100
AcDbSymbolTableRecord
100
AcDbLinetypeTableRecord
  2
ByBlock
 70
     0
  3

 72
    65
 73
     0
 40
0.0
  0
LTYPE
  5
15
330
5
100
AcDbSymbolTableRecord
100
AcDbLinetypeTableRecord
  2
ByLayer
 70
     0
  3

 72
    65
 73
     0
 40
0.0
  0
LTYPE
  5
16
330
5
100
AcDbSymbolTableRecord
100
AcDbLinetypeTableRecord
  2
Continuous
 70
     0
  3
Solid line
 72
    65
 73
     0
 40
0.0
  0
LTYPE
  5
42
330
5
100
AcDbSymbolTableRecord
100
AcDbLinetypeTableRecord
  2
K5LT_THIN
 70
     0
  3

 72
    65
 73
     0
 40
0.0
  0
LTYPE
  5
A5
330
5
100
AcDbSymbolTableRecord
100
AcDbLinetypeTableRecord
  2
K5LT_BASIC
 70
     0
  3

 72
    65
 73
     0
 40
0.0
  0
ENDTAB
  0
TABLE
  2
LAYER
  5
2
330
0
100
AcDbSymbolTable
 70
     2
  0
LAYER
  5
10
330
2
100
AcDbSymbolTableRecord
100
AcDbLayerTableRecord
  2
0
 70
     0
 62
     7
  6
Continuous
370
    -3
390
F
347
3E
  0
LAYER
  5
40
330
2
100
AcDbSymbolTableRecord
100
AcDbLayerTableRecord
  2
Системный слой
 70
     0
 62
     7
  6
Continuous
370
    -3
390
F
347
3E
  0
ENDTAB
  0
TABLE
  2
STYLE
  5
3
330
0
100
AcDbSymbolTable
 70
     1
  0
STYLE
  5
11
330
3
100
AcDbSymbolTableRecord
100
AcDbTextStyleTableRecord
  2
Standard
 70
     0
 40
0.0
 41
1.0
 50
0.0
 71
     0
 42
2.5
  3
txt
  4

  0
ENDTAB
  0
TABLE
  2
VIEW
  5
6
330
0
100
AcDbSymbolTable
 70
     0
  0
ENDTAB
  0
TABLE
  2
UCS
  5
7
330
0
100
AcDbSymbolTable
 70
     0
  0
ENDTAB
  0
TABLE
  2
APPID
  5
9
330
0
100
AcDbSymbolTable
 70
     2
  0
APPID
  5
12
330
9
100
AcDbSymbolTableRecord
100
AcDbRegAppTableRecord
  2
ACAD
 70
     0
  0
APPID
  5
3F
330
9
100
AcDbSymbolTableRecord
100
AcDbRegAppTableRecord
  2
KOMPAS
 70
     0
  0
ENDTAB
  0
TABLE
  2
DIMSTYLE
  5
A
330
0
100
AcDbSymbolTable
 70
     1
100
AcDbDimStyleTable
  0
DIMSTYLE
105
27
330
A
100
AcDbSymbolTableRecord
100
AcDbDimStyleTableRecord
  2
ISO-25
 70
     0
 41
2.5
 42
0.625
 43
3.75
 44
1.25
 73
     0
 74
     0
 77
     1
 78
     8
140
2.5
141
2.5
143
0.03937007874016
147
0.625
171
     3
172
     1
271
     2
272
     2
274
     3
278
    44
283
     0
284
     8
340
11
  0
ENDTAB
  0
TABLE
  2
BLOCK_RECORD
  5
1
330
0
100
AcDbSymbolTable
 70
    15
  0
BLOCK_RECORD
  5
1F
330
1
100
AcDbSymbolTableRecord
100
AcDbBlockTableRecord
  2
*Model_Space
340
22
 70
     0
280
     1
281
     0
  0
BLOCK_RECORD
  5
1B
330
1
100
AcDbSymbolTableRecord
100
AcDbBlockTableRecord
  2
*Paper_Space
340
1E
 70
     0
280
     1
281
     0
  0
BLOCK_RECORD
  5
23
330
1
100
AcDbSymbolTableRecord
100
AcDbBlockTableRecord
  2
*Paper_Space0
340
26
 70
     0
280
     1
281
     0
  0
BLOCK_RECORD
  5
41
330
1
100
AcDbSymbolTableRecord
100
AcDbBlockTableRecord
  2
KDIMARROW_00
340
0
 70
     0
280
     1
281
     0
  0
BLOCK_RECORD
  5
46
330
1
100
AcDbSymbolTableRecord
100
AcDbBlockTableRecord
  2
KDIMARROW_01
340
0
 70
     0
280
     1
281
     0
  0
BLOCK_RECORD
  5
4F
330
1
100
AcDbSymbolTableRecord
100
AcDbBlockTableRecord
  2
KDIMARROW_02
340
0
 70
     0
280
     1
281
     0
  0
BLOCK_RECORD
  5
59
330
1
100
AcDbSymbolTableRecord
100
AcDbBlockTableRecord
  2
KDIMARROW_03
340
0
 70
     0
280
     1
281
     0
  0
BLOCK_RECORD
  5
5F
330
1
100
AcDbSymbolTableRecord
100
AcDbBlockTableRecord
  2
KDIMARROW_04
340
0
 70
     0
280
     1
281
     0
  0
BLOCK_RECORD
  5
65
330
1
100
AcDbSymbolTableRecord
100
AcDbBlockTableRecord
  2
KDIMARROW_05
340
0
 70
     0
280
     1
281
     0
  0
BLOCK_RECORD
  5
6E
330
1
100
AcDbSymbolTableRecord
100
AcDbBlockTableRecord
  2
KDIMARROW_06
340
0
 70
     0
280
     1
281
     0
  0
BLOCK_RECORD
  5
78
330
1
100
AcDbSymbolTableRecord
100
AcDbBlockTableRecord
  2
KDIMARROW_07
340
0
 70
     0
280
     1
281
     0
  0
BLOCK_RECORD
  5
7E
330
1
100
AcDbSymbolTableRecord
100
AcDbBlockTableRecord
  2
KDIMARROW_08
340
0
 70
     0
280
     1
281
     0
  0
BLOCK_RECORD
  5
85
330
1
100
AcDbSymbolTableRecord
100
AcDbBlockTableRecord
  2
KDIMARROW_09
340
0
 70
     0
280
     1
281
     0
  0
BLOCK_RECORD
  5
8B
330
1
100
AcDbSymbolTableRecord
100
AcDbBlockTableRecord
  2
KDIMARROW_10
340
0
 70
     0
280
     1
281
     0
  0
BLOCK_RECORD
  5
92
330
1
100
AcDbSymbolTableRecord
100
AcDbBlockTableRecord
  2
KDIMARROW_11
340
0
 70
     0
280
     1
281
     0
  0
BLOCK_RECORD
  5
98
330
1
100
AcDbSymbolTableRecord
100
AcDbBlockTableRecord
  2
KDIMARROW_12
340
0
 70
     0
280
     1
281
     0
  0
BLOCK_RECORD
  5
9E
330
1
100
AcDbSymbolTableRecord
100
AcDbBlockTableRecord
  2
KDIMARROW_13
340
0
 70
     0
280
     1
281
     0
  0
ENDTAB
  0
ENDSEC
  0
SECTION
  2
BLOCKS
  0
BLOCK
  5
20
330
1F
100
AcDbEntity
  8
0
100
AcDbBlockBegin
  2
*Model_Space
 70
     0
 10
0.0
 20
0.0
 30
0.0
  3
*Model_Space
  1

  0
ENDBLK
  5
21
330
1F
100
AcDbEntity
  8
0
100
AcDbBlockEnd
  0
BLOCK
  5
1C
330
1B
100
AcDbEntity
 67
     1
  8
0
100
AcDbBlockBegin
  2
*Paper_Space
 70
     0
 10
0.0
 20
0.0
 30
0.0
  3
*Paper_Space
  1

  0
ENDBLK
  5
1D
330
1B
100
AcDbEntity
 67
     1
  8
0
100
AcDbBlockEnd
  0
BLOCK
  5
24
330
23
100
AcDbEntity
  8
0
100
AcDbBlockBegin
  2
*Paper_Space0
 70
     0
 10
0.0
 20
0.0
 30
0.0
  3
*Paper_Space0
  1

  0
ENDBLK
  5
25
330
23
100
AcDbEntity
  8
0
100
AcDbBlockEnd
  0
BLOCK
  5
44
330
41
100
AcDbEntity
  8
0
100
AcDbBlockBegin
  2
KDIMARROW_00
 70
     0
 10
0.0
 20
0.0
 30
0.0
  3
KDIMARROW_00
  1

  0
LINE
  5
43
330
41
100
AcDbEntity
  8
0
  6
K5LT_THIN
 62
     0
370
    18
100
AcDbLine
 10
0.0
 20
0.0
 30
0.0
 11
-1.0
 21
0.0
 31
0.0
  0
ENDBLK
  5
45
330
41
100
AcDbEntity
  8
0
100
AcDbBlockEnd
  0
BLOCK
  5
4D
330
46
100
AcDbEntity
  8
0
100
AcDbBlockBegin
  2
KDIMARROW_01
 70
     0
 10
0.0
 20
0.0
 30
0.0
  3
KDIMARROW_01
  1

  0
LINE
  5
47
330
46
100
AcDbEntity
  8
0
  6
K5LT_THIN
 62
     0
370
    18
100
AcDbLine
 10
0.0
 20
0.0
 30
0.0
 11
-5.000000000000002
 21
-0.6582624912261958
 31
0.0
  0
LINE
  5
48
330
46
100
AcDbEntity
  8
0
  6
K5LT_THIN
 62
     0
370
    18
100
AcDbLine
 10
-5.0
 20
-0.6582624912261956
 30
0.0
 11
-4.5
 21
0.0000000000000004
 31
0.0
  0
LINE
  5
49
330
46
100
AcDbEntity
  8
0
  6
K5LT_THIN
 62
     0
370
    18
100
AcDbLine
 10
-4.5
 20
0.0000000000000006
 30
0.0
 11
-5.0
 21
0.658262491226197
 31
0.0
  0
LINE
  5
4A
330
46
100
AcDbEntity
  8
0
  6
K5LT_THIN
 62
     0
370
    18
100
AcDbLine
 10
-5.0
 20
0.658262491226197
 30
0.0
 11
0.0000000000000018
 21
0.0
 31
0.0
  0
HATCH
  5
4B
330
46
100
AcDbEntity
  8
0
 62
     0
100
AcDbHatch
 10
0.0
 20
0.0
 30
0.0
210
0.0
220
0.0
230
1.0
  2
SOLID
 70
     1
 71
     0
 91
        1
 92
        1
 93
        4
 72
     1
 10
-5.000000000000002
 20
-0.6582624912261958
 11
0.0
 21
0.0
 72
     1
 10
0.0000000000000018
 20
0.0
 11
-5.0
 21
0.658262491226197
 72
     1
 10
-5.0
 20
0.658262491226197
 11
-4.5
 21
0.0000000000000007
 72
     1
 10
-4.5
 20
0.0000000000000004
 11
-5.0
 21
-0.6582624912261956
 97
        0
 75
     0
 76
     1
 98
        0
  0
LINE
  5
4C
330
46
100
AcDbEntity
  8
0
  6
K5LT_THIN
 62
     0
370
    18
100
AcDbLine
 10
0.0
 20
0.0
 30
0.0
 11
-1.0
 21
0.0
 31
0.0
  0
ENDBLK
  5
4E
330
46
100
AcDbEntity
  8
0
100
AcDbBlockEnd
  0
BLOCK
  5
57
330
4F
100
AcDbEntity
  8
0
100
AcDbBlockBegin
  2
KDIMARROW_02
 70
     0
 10
0.0
 20
0.0
 30
0.0
  3
KDIMARROW_02
  1

  0
LINE
  5
50
330
4F
100
AcDbEntity
  8
0
  6
K5LT_THIN
 62
     0
370
    18
100
AcDbLine
 10
0.0
 20
0.0
 30
0.0
 11
5.000000000000002
 21
-0.658262491226197
 31
0.0
  0
LINE
  5
51
330
4F
100
AcDbEntity
  8
0
  6
K5LT_THIN
 62
     0
370
    18
100
AcDbLine
 10
5.0
 20
-0.658262491226197
 30
0.0
 11
4.5
 21
-0.0000000000000006
 31
0.0
  0
LINE
  5
52
330
4F
100
AcDbEntity
  8
0
  6
K5LT_THIN
 62
     0
370
    18
100
AcDbLine
 10
4.5
 20
-0.0000000000000006
 30
0.0
 11
5.0
 21
0.6582624912261955
 31
0.0
  0
LINE
  5
53
330
4F
100
AcDbEntity
  8
0
  6
K5LT_THIN
 62
     0
370
    18
100
AcDbLine
 10
5.0
 20
0.6582624912261956
 30
0.0
 11
-0.0000000000000018
 21
-0.0000000000000002
 31
0.0
  0
LINE
  5
54
330
4F
100
AcDbEntity
  8
0
  6
K5LT_THIN
 62
     0
370
    18
100
AcDbLine
 10
0.0
 20
0.0
 30
0.0
 11
7.0
 21
-0.0000000000000009
 31
0.0
  0
HATCH
  5
55
330
4F
100
AcDbEntity
  8
0
 62
     0
100
AcDbHatch
 10
0.0
 20
0.0
 30
0.0
210
0.0
220
0.0
230
1.0
  2
SOLID
 70
     1
 71
     0
 91
        1
 92
        1
 93
        4
 72
     1
 10
4.5
 20
-0.0000000000000006
 11
5.0
 21
0.6582624912261955
 72
     1
 10
5.0
 20
0.6582624912261956
 11
-0.0000000000000018
 21
-0.0000000000000002
 72
     1
 10
0.0
 20
0.0
 11
5.000000000000002
 21
-0.658262491226197
 72
     1
 10
5.0
 20
-0.658262491226197
 11
4.5
 21
-0.0000000000000007
 97
        0
 75
     0
 76
     1
 98
        0
  0
LINE
  5
56
330
4F
100
AcDbEntity
  8
0
  6
K5LT_THIN
 62
     0
370
    18
100
AcDbLine
 10
0.0
 20
0.0
 30
0.0
 11
-1.0
 21
0.0
 31
0.0
  0
ENDBLK
  5
58
330
4F
100
AcDbEntity
  8
0
100
AcDbBlockEnd
  0
BLOCK
  5
5D
330
59
100
AcDbEntity
  8
0
100
AcDbBlockBegin
  2
KDIMARROW_03
 70
     0
 10
0.0
 20
0.0
 30
0.0
  3
KDIMARROW_03
  1

  0
LINE
  5
5A
330
59
100
AcDbEntity
  8
0
  6
K5LT_THIN
 62
     0
370
    18
100
AcDbLine
 10
-1.060500025749207
 20
-1.060500025749206
 30
0.0
 11
1.060500025749205
 21
1.060500025749205
 31
0.0
  0
LINE
  5
5B
330
59
100
AcDbEntity
  8
0
  6
K5LT_THIN
 62
     0
370
    18
100
AcDbLine
 10
0.0
 20
0.0
 30
0.0
 11
2.0
 21
-0.0000000000000002
 31
0.0
  0
LINE
  5
5C
330
59
100
AcDbEntity
  8
0
  6
K5LT_THIN
 62
     0
370
    18
100
AcDbLine
 10
0.0
 20
0.0
 30
0.0
 11
-1.0
 21
0.0
 31
0.0
  0
ENDBLK
  5
5E
330
59
100
AcDbEntity
  8
0
100
AcDbBlockEnd
  0
BLOCK
  5
63
330
5F
100
AcDbEntity
  8
0
100
AcDbBlockBegin
  2
KDIMARROW_04
 70
     0
 10
0.0
 20
0.0
 30
0.0
  3
KDIMARROW_04
  1

  0
LWPOLYLINE
  5
60
330
5F
100
AcDbEntity
  8
0
  6
K5LT_THIN
 62
     7
100
AcDbPolyline
 90
       15
 70
     0
 43
0.18
 10
-0.25
 20
0.0
 10
0.0
 20
-0.25
 10
0.25
 20
0.0
 10
0.0
 20
0.25
 10
-0.25
 20
0.0
 10
-0.5
 20
0.0000000000000001
 10
-0.0000000000000001
 20
-0.5
 10
0.5
 20
-0.0000000000000001
 10
0.0000000000000001
 20
0.5
 10
-0.5
 20
0.0000000000000001
 10
-0.75
 20
0.0000000000000001
 10
-0.0000000000000001
 20
-0.75
 10
0.75
 20
-0.0000000000000001
 10
0.0000000000000001
 20
0.75
 10
-0.7499999999999999
 20
0.0000000000000001
  0
LWPOLYLINE
  5
61
330
5F
100
AcDbEntity
  8
0
  6
K5LT_THIN
 62
     7
100
AcDbPolyline
 90
       15
 70
     0
 43
0.18
 10
-0.25
 20
0.0
 10
0.0
 20
-0.25
 10
0.25
 20
0.0
 10
0.0
 20
0.25
 10
-0.25
 20
0.0
 10
-0.5
 20
0.0000000000000001
 10
-0.0000000000000001
 20
-0.5
 10
0.5
 20
-0.0000000000000001
 10
0.0000000000000001
 20
0.5
 10
-0.5
 20
0.0000000000000001
 10
-0.75
 20
0.0000000000000001
 10
-0.0000000000000001
 20
-0.75
 10
0.75
 20
-0.0000000000000001
 10
0.0000000000000001
 20
0.75
 10
-0.7499999999999999
 20
0.0000000000000001
  0
LINE
  5
62
330
5F
100
AcDbEntity
  8
0
  6
K5LT_THIN
 62
     0
370
    18
100
AcDbLine
 10
0.0
 20
0.0
 30
0.0
 11
-1.0
 21
0.0
 31
0.0
  0
ENDBLK
  5
64
330
5F
100
AcDbEntity
  8
0
100
AcDbBlockEnd
  0
BLOCK
  5
6C
330
65
100
AcDbEntity
  8
0
100
AcDbBlockBegin
  2
KDIMARROW_05
 70
     0
 10
0.0
 20
0.0
 30
0.0
  3
KDIMARROW_05
  1

  0
LINE
  5
66
330
65
100
AcDbEntity
  8
0
  6
K5LT_THIN
 62
     0
370
    18
100
AcDbLine
 10
0.0
 20
0.0
 30
0.0
 11
-5.000000000000002
 21
-0.6582624912261958
 31
0.0
  0
LINE
  5
67
330
65
100
AcDbEntity
  8
0
  6
K5LT_THIN
 62
     0
370
    18
100
AcDbLine
 10
-5.0
 20
-0.6582624912261956
 30
0.0
 11
-5.0
 21
0.0000000000000007
 31
0.0
  0
LINE
  5
68
330
65
100
AcDbEntity
  8
0
  6
K5LT_THIN
 62
     0
370
    18
100
AcDbLine
 10
-5.0
 20
0.0000000000000006
 30
0.0
 11
-5.0
 21
0.658262491226197
 31
0.0
  0
LINE
  5
69
330
65
100
AcDbEntity
  8
0
  6
K5LT_THIN
 62
     0
370
    18
100
AcDbLine
 10
-5.0
 20
0.658262491226197
 30
0.0
 11
0.0000000000000018
 21
0.0
 31
0.0
  0
HATCH
  5
6A
330
65
100
AcDbEntity
  8
0
 62
     0
100
AcDbHatch
 10
0.0
 20
0.0
 30
0.0
210
0.0
220
0.0
230
1.0
  2
SOLID
 70
     1
 71
     0
 91
        1
 92
        1
 93
        4
 72
     1
 10
-5.000000000000002
 20
-0.6582624912261958
 11
0.0
 21
0.0
 72
     1
 10
0.0000000000000018
 20
0.0
 11
-5.0
 21
0.658262491226197
 72
     1
 10
-5.0
 20
0.658262491226197
 11
-5.0
 21
0.0000000000000007
 72
     1
 10
-5.0
 20
0.0000000000000007
 11
-5.0
 21
-0.6582624912261956
 97
        0
 75
     0
 76
     1
 98
        0
  0
LINE
  5
6B
330
65
100
AcDbEntity
  8
0
  6
K5LT_THIN
 62
     0
370
    18
100
AcDbLine
 10
0.0
 20
0.0
 30
0.0
 11
-1.0
 21
0.0
 31
0.0
  0
ENDBLK
  5
6D
330
65
100
AcDbEntity
  8
0
100
AcDbBlockEnd
  0
BLOCK
  5
76
330
6E
100
AcDbEntity
  8
0
100
AcDbBlockBegin
  2
KDIMARROW_06
 70
     0
 10
0.0
 20
0.0
 30
0.0
  3
KDIMARROW_06
  1

  0
LINE
  5
6F
330
6E
100
AcDbEntity
  8
0
  6
K5LT_THIN
 62
     0
370
    18
100
AcDbLine
 10
0.0
 20
0.0
 30
0.0
 11
5.000000000000002
 21
-0.658262491226197
 31
0.0
  0
LINE
  5
70
330
6E
100
AcDbEntity
  8
0
  6
K5LT_THIN
 62
     0
370
    18
100
AcDbLine
 10
5.0
 20
-0.658262491226197
 30
0.0
 11
5.0
 21
-0.0000000000000007
 31
0.0
  0
LINE
  5
71
330
6E
100
AcDbEntity
  8
0
  6
K5LT_THIN
 62
     0
370
    18
100
AcDbLine
 10
5.0
 20
-0.0000000000000006
 30
0.0
 11
5.0
 21
0.6582624912261956
 31
0.0
  0
LINE
  5
72
330
6E
100
AcDbEntity
  8
0
  6
K5LT_THIN
 62
     0
370
    18
100
AcDbLine
 10
5.0
 20
0.6582624912261956
 30
0.0
 11
-0.0000000000000018
 21
-0.0000000000000002
 31
0.0
  0
LINE
  5
73
330
6E
100
AcDbEntity
  8
0
  6
K5LT_THIN
 62
     0
370
    18
100
AcDbLine
 10
0.0
 20
0.0
 30
0.0
 11
7.0
 21
-0.0000000000000009
 31
0.0
  0
HATCH
  5
74
330
6E
100
AcDbEntity
  8
0
 62
     0
100
AcDbHatch
 10
0.0
 20
0.0
 30
0.0
210
0.0
220
0.0
230
1.0
  2
SOLID
 70
     1
 71
     0
 91
        1
 92
        1
 93
        4
 72
     1
 10
5.0
 20
-0.0000000000000006
 11
5.0
 21
0.6582624912261956
 72
     1
 10
5.0
 20
0.6582624912261956
 11
-0.0000000000000018
 21
-0.0000000000000002
 72
     1
 10
0.0
 20
0.0
 11
5.000000000000002
 21
-0.658262491226197
 72
     1
 10
5.0
 20
-0.658262491226197
 11
5.0
 21
-0.0000000000000007
 97
        0
 75
     0
 76
     1
 98
        0
  0
LINE
  5
75
330
6E
100
AcDbEntity
  8
0
  6
K5LT_THIN
 62
     0
370
    18
100
AcDbLine
 10
0.0
 20
0.0
 30
0.0
 11
-1.0
 21
0.0
 31
0.0
  0
ENDBLK
  5
77
330
6E
100
AcDbEntity
  8
0
100
AcDbBlockEnd
  0
BLOCK
  5
7C
330
78
100
AcDbEntity
  8
0
100
AcDbBlockBegin
  2
KDIMARROW_07
 70
     0
 10
0.0
 20
0.0
 30
0.0
  3
KDIMARROW_07
  1

  0
LINE
  5
79
330
78
100
AcDbEntity
  8
0
  6
K5LT_THIN
 62
     0
370
    18
100
AcDbLine
 10
0.0
 20
0.0
 30
0.0
 11
-5.000000000000002
 21
-0.6582624912261958
 31
0.0
  0
LINE
  5
7A
330
78
100
AcDbEntity
  8
0
  6
K5LT_THIN
 62
     0
370
    18
100
AcDbLine
 10
0.0
 20
0.0
 30
0.0
 11
-5.000000000000002
 21
0.658262491226197
 31
0.0
  0
LINE
  5
7B
330
78
100
AcDbEntity
  8
0
  6
K5LT_THIN
 62
     0
370
    18
100
AcDbLine
 10
0.0
 20
0.0
 30
0.0
 11
-1.0
 21
0.0
 31
0.0
  0
ENDBLK
  5
7D
330
78
100
AcDbEntity
  8
0
100
AcDbBlockEnd
  0
BLOCK
  5
83
330
7E
100
AcDbEntity
  8
0
100
AcDbBlockBegin
  2
KDIMARROW_08
 70
     0
 10
0.0
 20
0.0
 30
0.0
  3
KDIMARROW_08
  1

  0
LINE
  5
7F
330
7E
100
AcDbEntity
  8
0
  6
K5LT_THIN
 62
     0
370
    18
100
AcDbLine
 10
0.0
 20
0.0
 30
0.0
 11
5.000000000000002
 21
-0.658262491226197
 31
0.0
  0
LINE
  5
80
330
7E
100
AcDbEntity
  8
0
  6
K5LT_THIN
 62
     0
370
    18
100
AcDbLine
 10
0.0
 20
0.0
 30
0.0
 11
5.000000000000002
 21
0.6582624912261958
 31
0.0
  0
LINE
  5
81
330
7E
100
AcDbEntity
  8
0
  6
K5LT_THIN
 62
     0
370
    18
100
AcDbLine
 10
0.0
 20
0.0
 30
0.0
 11
7.0
 21
-0.0000000000000009
 31
0.0
  0
LINE
  5
82
330
7E
100
AcDbEntity
  8
0
  6
K5LT_THIN
 62
     0
370
    18
100
AcDbLine
 10
0.0
 20
0.0
 30
0.0
 11
-1.0
 21
0.0
 31
0.0
  0
ENDBLK
  5
84
330
7E
100
AcDbEntity
  8
0
100
AcDbBlockEnd
  0
BLOCK
  5
89
330
85
100
AcDbEntity
  8
0
100
AcDbBlockBegin
  2
KDIMARROW_09
 70
     0
 10
0.0
 20
0.0
 30
0.0
  3
KDIMARROW_09
  1

  0
LINE
  5
86
330
85
100
AcDbEntity
  8
0
  6
K5LT_THIN
 62
     0
370
    18
100
AcDbLine
 10
0.0
 20
0.0
 30
0.0
 11
-1.999999999999999
 21
-1.999999999999999
 31
0.0
  0
LINE
  5
87
330
85
100
AcDbEntity
  8
0
  6
K5LT_THIN
 62
     0
370
    18
100
AcDbLine
 10
0.0
 20
0.0
 30
0.0
 11
-1.999999999999999
 21
1.999999999999999
 31
0.0
  0
LINE
  5
88
330
85
100
AcDbEntity
  8
0
  6
K5LT_THIN
 62
     0
370
    18
100
AcDbLine
 10
0.0
 20
0.0
 30
0.0
 11
-1.0
 21
0.0
 31
0.0
  0
ENDBLK
  5
8A
330
85
100
AcDbEntity
  8
0
100
AcDbBlockEnd
  0
BLOCK
  5
90
330
8B
100
AcDbEntity
  8
0
100
AcDbBlockBegin
  2
KDIMARROW_10
 70
     0
 10
0.0
 20
0.0
 30
0.0
  3
KDIMARROW_10
  1

  0
LINE
  5
8C
330
8B
100
AcDbEntity
  8
0
  6
K5LT_THIN
 62
     0
370
    18
100
AcDbLine
 10
0.0
 20
0.0
 30
0.0
 11
1.999999999999999
 21
-1.999999999999999
 31
0.0
  0
LINE
  5
8D
330
8B
100
AcDbEntity
  8
0
  6
K5LT_THIN
 62
     0
370
    18
100
AcDbLine
 10
0.0
 20
0.0
 30
0.0
 11
1.999999999999999
 21
1.999999999999999
 31
0.0
  0
LINE
  5
8E
330
8B
100
AcDbEntity
  8
0
  6
K5LT_THIN
 62
     0
370
    18
100
AcDbLine
 10
0.0
 20
0.0
 30
0.0
 11
4.0
 21
-0.0000000000000005
 31
0.0
  0
LINE
  5
8F
330
8B
100
AcDbEntity
  8
0
  6
K5LT_THIN
 62
     0
370
    18
100
AcDbLine
 10
0.0
 20
0.0
 30
0.0
 11
-1.0
 21
0.0
 31
0.0
  0
ENDBLK
  5
91
330
8B
100
AcDbEntity
  8
0
100
AcDbBlockEnd
  0
BLOCK
  5
96
330
92
100
AcDbEntity
  8
0
100
AcDbBlockBegin
  2
KDIMARROW_11
 70
     0
 10
0.0
 20
0.0
 30
0.0
  3
KDIMARROW_11
  1

  0
CIRCLE
  5
93
330
92
100
AcDbEntity
  8
0
  6
K5LT_THIN
 62
     0
370
    18
100
AcDbCircle
 10
0.0
 20
0.0
 30
0.0
 40
2.5
  0
CIRCLE
  5
94
330
92
100
AcDbEntity
  8
0
  6
K5LT_THIN
 62
     0
370
    18
100
AcDbCircle
 10
0.0
 20
0.0
 30
0.0
 40
2.5
  0
LINE
  5
95
330
92
100
AcDbEntity
  8
0
  6
K5LT_THIN
 62
     0
370
    18
100
AcDbLine
 10
0.0
 20
0.0
 30
0.0
 11
-1.0
 21
0.0
 31
0.0
  0
ENDBLK
  5
97
330
92
100
AcDbEntity
  8
0
100
AcDbBlockEnd
  0
BLOCK
  5
9C
330
98
100
AcDbEntity
  8
0
100
AcDbBlockBegin
  2
KDIMARROW_12
 70
     0
 10
0.0
 20
0.0
 30
0.0
  3
KDIMARROW_12
  1

  0
CIRCLE
  5
99
330
98
100
AcDbEntity
  8
0
  6
K5LT_THIN
 62
     0
370
    18
100
AcDbCircle
 10
0.0
 20
0.0
 30
0.0
 40
1.5
  0
CIRCLE
  5
9A
330
98
100
AcDbEntity
  8
0
  6
K5LT_THIN
 62
     0
370
    18
100
AcDbCircle
 10
0.0
 20
0.0
 30
0.0
 40
1.5
  0
LINE
  5
9B
330
98
100
AcDbEntity
  8
0
  6
K5LT_THIN
 62
     0
370
    18
100
AcDbLine
 10
0.0
 20
0.0
 30
0.0
 11
-1.0
 21
0.0
 31
0.0
  0
ENDBLK
  5
9D
330
98
100
AcDbEntity
  8
0
100
AcDbBlockEnd
  0
BLOCK
  5
A2
330
9E
100
AcDbEntity
  8
0
100
AcDbBlockBegin
  2
KDIMARROW_13
 70
     0
 10
0.0
 20
0.0
 30
0.0
  3
KDIMARROW_13
  1

  0
LINE
  5
9F
330
9E
100
AcDbEntity
  8
0
  6
K5LT_THIN
 62
     0
370
    18
100
AcDbLine
 10
-1.060500025749206
 20
1.060500025749207
 30
0.0
 11
1.060500025749205
 21
-1.060500025749205
 31
0.0
  0
LINE
  5
A0
330
9E
100
AcDbEntity
  8
0
  6
K5LT_THIN
 62
     0
370
    18
100
AcDbLine
 10
0.0
 20
0.0
 30
0.0
 11
2.0
 21
-0.0000000000000002
 31
0.0
  0
LINE
  5
A1
330
9E
100
AcDbEntity
  8
0
  6
K5LT_THIN
 62
     0
370
    18
100
AcDbLine
 10
0.0
 20
0.0
 30
0.0
 11
-1.0
 21
0.0
 31
0.0
  0
ENDBLK
  5
A3
330
9E
100
AcDbEntity
  8
0
100
AcDbBlockEnd
  0
ENDSEC
  0
SECTION
  2
ENTITIES
  0
XLINE
  5
A4
330
1F
100
AcDbEntity
  8
0
 62
     9
420
 14460353
100
AcDbXline
 10
524.7343431741897
 20
128.8705327753417
 30
0.0
 11
6.123031769111886E-17
 21
1.0
 31
0.0
  0
CIRCLE
  5
A6
330
1F
100
AcDbEntity
  8
0
  6
K5LT_BASIC
 62
     5
420
      255
370
    60
100
AcDbCircle
 10
101.2845182480126
 20
186.1132213566198
 30
0.0
 40
1.3
  0
CIRCLE
  5
A7
330
1F
100
AcDbEntity
  8
0
  6
K5LT_BASIC
 62
     5
420
      255
370
    60
100
AcDbCircle
 10
101.3758573518097
 20
136.9973480940168
 30
0.0
 40
1.3
  0
CIRCLE
  5
A8
330
1F
100
AcDbEntity
  8
0
  6
K5LT_BASIC
 62
     5
420
      255
370
    60
100
AcDbCircle
 10
175.2077113432859
 20
137.0465279642702
 30
0.0
 40
1.3
  0
CIRCLE
  5
A9
330
1F
100
AcDbEntity
  8
0
  6
K5LT_BASIC
 62
     5
420
      255
370
    60
100
AcDbCircle
 10
175.1766619614978
 20
186.1151013391857
 30
0.0
 40
1.3
  0
CIRCLE
  5
AA
330
1F
100
AcDbEntity
  8
0
  6
K5LT_BASIC
 62
     5
420
      255
370
    60
100
AcDbCircle
 10
89.73557026756902
 20
120.1059085963185
 30
0.0
 40
1.3
  0
CIRCLE
  5
AB
330
1F
100
AcDbEntity
  8
0
  6
K5LT_BASIC
 62
     5
420
      255
370
    60
100
AcDbCircle
 10
75.70393077175774
 20
120.0879440163928
 30
0.0
 40
1.3
  0
CIRCLE
  5
AC
330
1F
100
AcDbEntity
  8
0
  6
K5LT_BASIC
 62
     5
420
      255
370
    60
100
AcDbCircle
 10
75.77873194380469
 20
101.5781232342867
 30
0.0
 40
1.3
  0
CIRCLE
  5
AD
330
1F
100
AcDbEntity
  8
0
  6
K5LT_BASIC
 62
     5
420
      255
370
    60
100
AcDbCircle
 10
89.8157325923049
 20
101.5912530999446
 30
0.0
 40
1.3
  0
CIRCLE
  5
AE
330
1F
100
AcDbEntity
  8
0
  6
K5LT_BASIC
 62
     5
420
      255
370
    60
100
AcDbCircle
 10
69.82234397365295
 20
88.81998182585414
 30
0.0
 40
1.3
  0
CIRCLE
  5
AF
330
1F
100
AcDbEntity
  8
0
  6
K5LT_BASIC
 62
     5
420
      255
370
    60
100
AcDbCircle
 10
82.31386569437835
 20
74.868819662937
 30
0.0
 40
1.3
  0
CIRCLE
  5
B0
330
1F
100
AcDbEntity
  8
0
  6
K5LT_BASIC
 62
     5
420
      255
370
    60
100
AcDbCircle
 10
82.37239844441847
 20
64.83853254345769
 30
0.0
 40
1.3
  0
CIRCLE
  5
B1
330
1F
100
AcDbEntity
  8
0
  6
K5LT_BASIC
 62
     5
420
      255
370
    60
100
AcDbCircle
 10
94.33686618235284
 20
9.981200104967854
 30
0.0
 40
1.3
  0
CIRCLE
  5
B2
330
1F
100
AcDbEntity
  8
0
  6
K5LT_BASIC
 62
     5
420
      255
370
    60
100
AcDbCircle
 10
85.30839287909845
 20
9.507933359232737
 30
0.0
 40
1.3
  0
CIRCLE
  5
B3
330
1F
100
AcDbEntity
  8
0
  6
K5LT_BASIC
 62
     5
420
      255
370
    60
100
AcDbCircle
 10
223.6458646835264
 20
16.91314261688373
 30
0.0
 40
1.3
  0
CIRCLE
  5
B4
330
1F
100
AcDbEntity
  8
0
  6
K5LT_BASIC
 62
     5
420
      255
370
    60
100
AcDbCircle
 10
232.6810923606288
 20
17.47667033063232
 30
0.0
 40
1.3
  0
CIRCLE
  5
B5
330
1F
100
AcDbEntity
  8
0
  6
K5LT_BASIC
 62
     5
420
      255
370
    60
100
AcDbCircle
 10
270.1043912605894
 20
19.51190121696871
 30
0.0
 40
1.3
  0
CIRCLE
  5
B6
330
1F
100
AcDbEntity
  8
0
  6
K5LT_BASIC
 62
     5
420
      255
370
    60
100
AcDbCircle
 10
279.0530019297772
 20
20.00759685170507
 30
0.0
 40
1.3
  0
CIRCLE
  5
B7
330
1F
100
AcDbEntity
  8
0
  6
K5LT_BASIC
 62
     5
420
      255
370
    60
100
AcDbCircle
 10
324.7380039857584
 20
40.89875563109004
 30
0.0
 40
1.3
  0
CIRCLE
  5
B8
330
1F
100
AcDbEntity
  8
0
  6
K5LT_BASIC
 62
     5
420
      255
370
    60
100
AcDbCircle
 10
306.22882286223
 20
100.3979339658333
 30
0.0
 40
1.3
  0
CIRCLE
  5
B9
330
1F
100
AcDbEntity
  8
0
  6
K5LT_BASIC
 62
     5
420
      255
370
    60
100
AcDbCircle
 10
288.7666354408469
 20
114.6236204467708
 30
0.0
 40
1.3
  0
CIRCLE
  5
BA
330
1F
100
AcDbEntity
  8
0
  6
K5LT_BASIC
 62
     5
420
      255
370
    60
100
AcDbCircle
 10
297.562368242698
 20
118.4278354602436
 30
0.0
 40
1.3
  0
CIRCLE
  5
BB
330
1F
100
AcDbEntity
  8
0
  6
K5LT_BASIC
 62
     5
420
      255
370
    60
100
AcDbCircle
 10
220.8440312420041
 20
89.04770791891448
 30
0.0
 40
1.3
  0
CIRCLE
  5
BC
330
1F
100
AcDbEntity
  8
0
  6
K5LT_BASIC
 62
     5
420
      255
370
    60
100
AcDbCircle
 10
194.8507674053515
 20
114.4175146891095
 30
0.0
 40
1.3
  0
CIRCLE
  5
BD
330
1F
100
AcDbEntity
  8
0
  6
K5LT_BASIC
 62
     5
420
      255
370
    60
100
AcDbCircle
 10
225.7636744525445
 20
114.4514229900743
 30
0.0
 40
1.3
  0
CIRCLE
  5
BE
330
1F
100
AcDbEntity
  8
0
  6
K5LT_BASIC
 62
     5
420
      255
370
    60
100
AcDbCircle
 10
256.6498979911643
 20
156.3001681720303
 30
0.0
 40
1.3
  0
CIRCLE
  5
BF
330
1F
100
AcDbEntity
  8
0
  6
K5LT_BASIC
 62
     5
420
      255
370
    60
100
AcDbCircle
 10
63.7166431664856
 20
121.3059282706743
 30
0.0
 40
1.6
  0
CIRCLE
  5
C0
330
1F
100
AcDbEntity
  8
0
  6
K5LT_BASIC
 62
     5
420
      255
370
    60
100
AcDbCircle
 10
25.6053868211523
 20
121.2895936482013
 30
0.0
 40
1.6
  0
CIRCLE
  5
C1
330
1F
100
AcDbEntity
  8
0
  6
K5LT_BASIC
 62
     5
420
      255
370
    60
100
AcDbCircle
 10
25.58945961173545
 20
88.69258758179919
 30
0.0
 40
1.6
  0
CIRCLE
  5
C2
330
1F
100
AcDbEntity
  8
0
  6
K5LT_BASIC
 62
     5
420
      255
370
    60
100
AcDbCircle
 10
63.72574001177494
 20
88.74835668062349
 30
0.0
 40
1.6
  0
CIRCLE
  5
C3
330
1F
100
AcDbEntity
  8
0
  6
K5LT_BASIC
 62
     5
420
      255
370
    60
100
AcDbCircle
 10
75.04806518173567
 20
16.56730229435591
 30
0.0
 40
1.6
  0
LWPOLYLINE
  5
C4
330
1F
100
AcDbEntity
  8
0
  6
K5LT_BASIC
 62
     5
420
      255
100
AcDbPolyline
 90
       95
 70
     1
 43
0.6
 10
170.8772573635068
 20
135.0145923144767
 10
170.9226428607468
 20
189.0894647725001
 10
172.7025839902982
 20
190.0015007231793
 42
-0.1365031167420964
 10
175.1766619614978
 20
190.7316741239625
 42
-0.0616500598647771
 10
189.4793504853777
 20
188.3825122552844
 10
199.2012538928574
 20
185.620809018296
 42
-0.044900977554179
 10
256.3672742541368
 20
160.6636082478966
 10
302.2621419052278
 20
118.129011964424
 10
303.1871552621143
 20
117.2717250453049
 10
303.9410471653102
 20
116.1296609616731
 10
318.0915363062826
 20
95.37218851480117
 10
325.7180547869624
 20
82.87652354945403
 10
327.4532438143799
 20
79.66132035159214
 10
328.7801530706404
 20
76.57370458221682
 10
329.3160202702841
 20
73.6391937270254
 10
329.6987825557438
 20
67.16036687659133
 10
330.0305098698089
 20
60.4976885929073
 10
330.5032907963787
 20
52.44196021642974
 10
330.7336569683939
 20
49.11051095959543
 10
331.1235074133426
 20
45.14112461102687
 10
331.1235074133426
 20
42.19875563109004
 10
330.875420766557
 20
40.01990740238264
 10
330.0978241466617
 20
37.38852233567678
 10
328.107647082233
 20
34.45485229050352
 10
326.9230400153715
 20
33.26130296499951
 10
323.7702245440998
 20
31.24301587502497
 10
318.6260289782469
 20
29.3551093411416
 10
318.1178877790541
 20
29.17556828694601
 10
311.9380589156817
 20
27.35620448079971
 10
305.4670277556618
 20
25.79820583678426
 10
288.7488220882158
 20
22.71573941182885
 10
285.9132418305559
 20
22.06627689050758
 10
284.2194685569225
 20
21.30759685170507
 10
282.9648588933248
 20
20.00759685170507
 10
282.3692155810344
 20
18.31397330395219
 10
282.3692155810344
 20
16.83600380935092
 10
267.37084557183
 20
16.03353141865241
 42
0.0845784052544442
 10
265.3304728223509
 20
18.26435949745028
 42
0.1238535663863153
 10
264.6159750733488
 20
18.57894755254247
 42
0.0315771331864211
 10
262.9053696598338
 20
18.75951228576567
 10
238.6062731160548
 20
16.51014403079954
 42
0.1683254521666824
 10
237.6522276973172
 20
16.07740316787439
 10
236.2555544386856
 20
14.7516446299758
 42
-0.1783308337718824
 10
235.2395116020183
 20
14.31437737916257
 10
221.4071752475412
 20
13.57429242216317
 42
-0.2398162897980385
 10
220.5779160883957
 20
13.94192411963513
 42
0.2156726426496915
 10
216.2762413399634
 20
16.09032337556756
 42
0.0339674922996586
 10
202.8598899369032
 20
16.80972285600615
 42
0.0266257139111982
 10
144.9111160849359
 20
12.49257459557801
 42
0.0073460576334764
 10
144.8762132592648
 20
12.48757438519135
 42
0.0154332702047355
 10
104.0098093172654
 20
4.719285978942821
 10
103.4482447752726
 20
6.36478387587651
 42
0.1228733463267333
 10
103.1067797055181
 20
6.893550452819412
 42
0.2293750157522227
 10
101.0656035113463
 20
7.52926891303985
 10
98.07888055184242
 20
7.247336362290218
 10
97.91274986899188
 20
7.192822225318779
 10
97.74607369547603
 20
7.045194757347597
 10
97.65083016775269
 20
6.930902524079583
 10
97.5183652320873
 20
6.876074835951475
 10
82.80061942279154
 20
5.993123460976761
 10
75.95889011219451
 20
8.751755028732298
 10
72.83185436146722
 20
10.45242359491732
 10
68.79962405131887
 20
12.70169492438782
 10
64.52052249769204
 20
15.5269991553081
 10
58.67790306870158
 20
19.7238102944421
 10
55.11198510734589
 20
22.71369535434802
 10
51.38148631700457
 20
26.14246262488233
 10
47.73327794115605
 20
29.84553127705939
 10
43.64618735467915
 20
34.70066573213597
 10
40.27228036047339
 20
39.03462756209134
 10
36.7063623991177
 20
44.19149353697495
 10
34.40223079331864
 20
48.05914301813765
 10
32.12552932568386
 20
52.00908291379317
 10
28.26710402874579
 20
60.56427582040229
 10
25.58945961173545
 20
68.08227391197703
 10
21.87745049743982
 20
81.24433973349122
 10
19.71391858779216
 20
91.76948230388136
 10
17.37649872197091
 20
109.1273994333867
 10
16.97036319841919
 20
114.5850716136841
 10
17.36187782057755
 20
127.2203162378872
 42
-0.1419295641305858
 10
18.04720273461123
 20
129.338227356552
 42
-0.0312867090087271
 10
35.31014541157019
 20
151.6973526613404
 42
-0.1564291824320873
 10
99.95405702682405
 20
190.0877141417144
 42
-0.0871478244771742
 10
101.3360629109053
 20
190.1592323856636
 10
108.7478651711007
 20
189.2493288384044
 10
108.7478651711007
 20
183.2493288384044
 42
0.2597424749714851
 10
106.2929630854884
 20
180.6899091429581
 42
0.0643493310631935
 10
106.2537637544657
 20
180.3848139905888
 10
106.280272257332
 20
144.5242569673953
 10
106.280272257332
 20
142.6630123696861
 42
0.0578437972046885
 10
106.3121790725958
 20
142.388133647751
 42
0.2945493273437248
 10
108.7700938342898
 20
140.0200739574337
 10
108.6832381244719
 20
135.2597056709814
 42
0.4197021579774939
 10
109.8835895287217
 20
134.037814737589
 10
169.9276939818484
 20
134.0653897574016
 42
0.4138332757475867
  0
LWPOLYLINE
  5
C5
330
1F
100
AcDbEntity
  8
0
  6
K5LT_BASIC
 62
     5
420
      255
100
AcDbPolyline
 90
        6
 70
     1
 43
0.6
 10
208.4046521298681
 20
137.4173416998889
 42
0.1619679115387011
 10
275.8750243380966
 20
119.2479817402265
 42
0.665754209887562
 10
276.8538992137537
 20
122.03326619592
 42
0.0417719915060021
 10
250.0420991441536
 20
142.4377794868467
 42
0.0995055782311095
 10
186.7056789617807
 20
168.8299031433949
 42
0.5944231827800903
 10
184.4564591905619
 20
166.130288143331
 42
0.1599354190392216
  0
LWPOLYLINE
  5
C6
330
1F
100
AcDbEntity
  8
0
  6
K5LT_BASIC
 62
     5
420
      255
100
AcDbPolyline
 90
        6
 70
     1
 43
0.6
 10
80.55210832334393
 20
143.2656045429999
 42
0.0516547491517251
 10
90.92400955277037
 20
171.9460167791274
 42
0.5994478575587548
 10
88.30586781684492
 20
174.3106063611613
 42
0.1250766409853867
 10
40.55459604124641
 20
142.0380120631706
 42
0.6302344562610049
 10
41.95021286905787
 20
138.7102469347473
 42
0.0575594977569505
 10
77.67076976526633
 20
141.071610965333
 42
0.2393105227631857
  0
LWPOLYLINE
  5
C7
330
1F
100
AcDbEntity
  8
0
  6
K5LT_BASIC
 62
     5
420
      255
100
AcDbPolyline
 90
       12
 70
     1
 43
0.6
 10
40.24322284778945
 20
81.8033913474757
 42
-0.1341108920772645
 10
76.60291560746309
 20
81.54181920001476
 42
-0.3344820133700767
 10
78.79161754128994
 20
78.67109470074318
 10
78.88012002353851
 20
63.50513535094979
 42
0.0052391603929144
 10
78.89426505573452
 20
61.08121482537672
 42
0.0746802826694232
 10
86.64185450130344
 20
31.787886595463
 42
-0.4930101359058765
 10
83.54709483573299
 20
25.26115193894549
 42
0.0641785038142323
 10
78.64607444151139
 20
23.80340936194555
 42
-0.2425910762356539
 10
72.15856462767897
 20
24.69817132449462
 42
-0.139236154310795
 10
39.0869926950937
 20
56.51790796146162
 42
-0.1315033538055833
 10
37.7253129523267
 20
61.5061075417278
 10
37.64114369497938
 20
78.40308595419994
 42
-0.3415030135292759
  0
LWPOLYLINE
  5
C8
330
1F
100
AcDbEntity
  8
0
  6
K5LT_BASIC
 62
     5
420
      255
100
AcDbPolyline
 90
       32
 70
     1
 43
0.6
 10
302.8059704174136
 20
79.05774814551415
 42
0.0114317460553868
 10
294.2294890706214
 20
81.13372385419626
 42
0.0136463951228405
 10
277.2743655275223
 20
83.97328072624549
 42
0.0332102811834671
 10
232.7317401257252
 20
85.92681704693724
 10
210.7317401257252
 20
85.92681704693724
 10
210.7366477411882
 20
92.03556891896703
 42
0.2356955734362231
 10
210.0994804312959
 20
93.31472528350864
 10
185.98634957298
 20
111.48314668364
 42
0.1632779751987043
 10
167.8827413356805
 20
117.5230235630413
 10
132.5934942684335
 20
117.4636140561941
 42
0.0661754769742842
 10
131.0263497339867
 20
117.252603171681
 42
0.0271338059823085
 10
102.9234560234171
 20
107.9316690591423
 42
0.255887029667229
 10
99.2311808303212
 20
103.5056753027121
 10
96.42866327336985
 20
89.25954438820945
 42
0.0865350146756439
 10
96.13962076434035
 20
85.49137329607073
 42
0.0279272010686005
 10
97.37144221009481
 20
77.66254680325281
 10
98.08702453833007
 20
72.96702448038926
 42
0.2194473062316136
 10
104.083177789537
 20
63.88009091053844
 42
0.1015299119070684
 10
136.1430949744415
 20
52.06438490268064
 42
0.0859441480025516
 10
151.9418937971053
 20
51.09226443554775
 42
-0.0629318070615923
 10
201.3210294636617
 20
47.66852135675396
 10
203.9454902980001
 20
47.19567627820054
 10
206.3424523171242
 20
46.78295434113281
 10
209.5657386570529
 20
46.65008467000311
 10
212.5329121297466
 20
46.75113392139516
 10
215.5368307847648
 20
46.87974205953049
 10
217.885531519202
 20
47.08840212417601
 42
0.0407638628397679
 10
303.9287437691605
 20
60.67864591539099
 42
0.2021072670132257
 10
307.4865676740255
 20
63.68854802413576
 42
0.1821235675647779
 10
308.0996391032062
 20
67.16036687659133
 10
307.8849630440008
 20
71.4721833030414
 42
0.0403024853433267
 10
307.6233278998797
 20
74.03403412956115
 42
0.2661932539635496
  0
LWPOLYLINE
  5
C9
330
1F
100
AcDbEntity
  8
0
  6
K5LT_BASIC
 62
     5
420
      255
100
AcDbPolyline
 90
        6
 70
     1
 43
0.6
 10
101.8750214395916
 20
33.88095377638428
 42
-0.1160519548648981
 10
94.97741820520967
 20
47.33067110979304
 42
-0.6643432361604401
 10
97.93322605186935
 20
49.53512828732462
 42
0.0921002033743571
 10
132.6134345197932
 20
36.942972808025
 42
-0.8686803368577927
 10
132.550902673195
 20
34.36928602713988
 42
0.031019480135038
 10
111.8691706059797
 20
30.64760650670359
 42
-0.2837471087869698
  0
LWPOLYLINE
  5
CA
330
1F
100
AcDbEntity
  8
0
  6
K5LT_BASIC
 62
     5
420
      255
100
AcDbPolyline
 90
        4
 70
     1
 43
0.6
 10
32.22448951973116
 20
73.43305454243772
 10
35.20027523589015
 20
73.44111999918749
 42
0.9999999999999999
 10
35.19322832037744
 20
76.04111044935874
 10
32.21744260421845
 20
76.03304499260896
 42
0.9999999999999999
  0
LWPOLYLINE
  5
CB
330
1F
100
AcDbEntity
  8
0
  6
K5LT_BASIC
 62
     5
420
      255
100
AcDbPolyline
 90
        4
 70
     1
 43
0.6
 10
32.27597535425857
 20
66.00275787312965
 10
35.25176107041756
 20
66.01082332987943
 42
-0.9999999999999999
 10
35.25880798593026
 20
63.41083287970818
 10
32.28302226977127
 20
63.4027674229584
 42
-0.9999999999999999
  0
LWPOLYLINE
  5
CC
330
1F
100
AcDbEntity
  8
0
  6
K5LT_BASIC
 62
     5
420
      255
100
AcDbPolyline
 90
        8
 70
     1
 43
0.6
 10
35.36086737056723
 20
134.0262464693463
 10
41.78412608370909
 20
134.0262464693463
 42
-0.9999999999999999
 10
43.78412608370909
 20
134.0262464693463
 10
43.78412608370909
 20
132.024085572638
 42
-0.9999999999999999
 10
41.78412608370909
 20
132.024085572638
 10
35.36086737056723
 20
132.024085572638
 42
-0.9999999999999999
 10
33.36086737056723
 20
132.024085572638
 10
33.36086737056723
 20
134.0262464693463
 42
-0.9999999999999999
  0
LWPOLYLINE
  5
CD
330
1F
100
AcDbEntity
  8
0
  6
K5LT_BASIC
 62
     5
420
      255
100
AcDbPolyline
 90
        8
 70
     1
 43
0.6
 10
85.57097604474001
 20
134.10559088186
 10
91.99423475788187
 20
134.10559088186
 42
-0.9999999999999999
 10
93.99423475788187
 20
134.10559088186
 10
93.99423475788187
 20
132.1034299851516
 42
-0.9999999999999999
 10
91.99423475788187
 20
132.1034299851516
 10
85.57097604474001
 20
132.1034299851516
 42
-0.9999999999999999
 10
83.57097604474001
 20
132.1034299851516
 10
83.57097604474001
 20
134.10559088186
 42
-0.9999999999999999
  0
LWPOLYLINE
  5
CE
330
1F
100
AcDbEntity
  8
0
  6
K5LT_BASIC
 62
     5
420
      255
100
AcDbPolyline
 90
        8
 70
     1
 43
0.6
 10
175.8039016342756
 20
164.7553131275793
 10
175.795139701394
 20
158.3320603904932
 42
-0.9999999999999999
 10
175.792411512083
 20
156.3320622512483
 10
173.7902524781402
 20
156.3347933882269
 42
-0.9999999999999999
 10
173.7929806674512
 20
158.3347915274719
 10
173.8017426003328
 20
164.758044264558
 42
-0.9999999999999999
 10
173.8044707896438
 20
166.7580424038029
 10
175.8066298235866
 20
166.7553112668242
 42
-0.9999999999999999
  0
LWPOLYLINE
  5
CF
330
1F
100
AcDbEntity
  8
0
  6
K5LT_BASIC
 62
     5
420
      255
100
AcDbPolyline
 90
        8
 70
     1
 43
0.6
 10
91.23711008898258
 20
70.23738480422995
 10
92.15315579510703
 20
63.87978205160032
 42
-1.0
 10
92.43838351114164
 20
61.90022524513942
 10
90.45668789578721
 20
61.61468935528845
 42
-0.9999999999999994
 10
90.1714601797526
 20
63.59424616174935
 10
89.25541447362815
 20
69.95184891437899
 42
-0.9999999999999999
 10
88.97018675759352
 20
71.93140572083988
 10
90.95188237294795
 20
72.21694161069084
 42
-0.9999999999999999
  0
CIRCLE
  5
D0
330
1F
100
AcDbEntity
  8
0
  6
K5LT_BASIC
 62
     5
420
      255
370
    60
100
AcDbCircle
 10
63.7166431664856
 20
128.6466480399963
 30
0.0
 40
2.847079122950191
  0
CIRCLE
  5
D1
330
1F
100
AcDbEntity
  8
0
  6
K5LT_BASIC
 62
     5
420
      255
370
    60
100
AcDbCircle
 10
25.6053868211523
 20
128.6059507244156
 30
0.0
 40
2.847079122950191
  0
CIRCLE
  5
D2
330
1F
100
AcDbEntity
  8
0
  6
K5LT_BASIC
 62
     5
420
      255
370
    60
100
AcDbCircle
 10
371.272131418189
 20
209.5184535121995
 30
0.0
 40
1.3
  0
CIRCLE
  5
D3
330
1F
100
AcDbEntity
  8
0
  6
K5LT_BASIC
 62
     5
420
      255
370
    60
100
AcDbCircle
 10
371.3130837955164
 20
193.8009310939799
 30
0.0
 40
1.3
  0
LWPOLYLINE
  5
D4
330
1F
100
AcDbEntity
  8
0
  6
K5LT_BASIC
 62
     5
420
      255
100
AcDbPolyline
 90
        4
 70
     1
 43
0.6
 10
320.9934949826805
 20
200.1430112587494
 10
370.2556364958421
 20
200.2713649364805
 42
0.9999999999999999
 10
370.2477863719275
 20
203.2842424949106
 10
320.9856448587659
 20
203.1558888171796
 42
0.9999999999999999
  0
LWPOLYLINE
  5
D5
330
1F
100
AcDbEntity
  8
0
  6
K5LT_BASIC
 62
     5
420
      255
100
AcDbPolyline
 90
        8
 70
     1
 43
0.6
 10
321.0091153204473
 20
194.1494755061844
 10
366.7889822654014
 20
194.2687806844841
 42
-0.3447536584985511
 10
368.3452051131198
 20
193.0575418005537
 42
0.88540418572459
 10
374.3726373522263
 20
193.8089028333147
 10
374.331684974899
 20
209.5264252515343
 42
0.861685838342658
 10
368.3438725689465
 20
210.4051505443572
 42
-0.3297702384900855
 10
366.8167065734498
 20
209.2688544864568
 10
320.9700325998952
 20
209.1494245907943
 42
1.000000538595049
  0
LWPOLYLINE
  5
D6
330
1F
100
AcDbEntity
  8
0
  6
K5LT_BASIC
 62
     5
420
      255
100
AcDbPolyline
 90
        8
 70
     1
 43
0.6
 10
97.60066585234533
 20
26.68365346535588
 10
98.51671155846977
 20
20.32605071272625
 42
-0.9999999999999999
 10
98.80193927450436
 20
18.34649390626535
 10
96.82024365914992
 20
18.06095801641438
 42
-0.9999999999999999
 10
96.53501594311533
 20
20.04051482287529
 10
95.61897023699089
 20
26.39811757550492
 42
-0.9999999999999999
 10
95.33374252095629
 20
28.37767438196582
 10
97.31543813631073
 20
28.66321027181678
 42
-0.9999999999999999
  0
LWPOLYLINE
  5
D7
330
1F
100
AcDbEntity
  8
0
  6
K5LT_BASIC
 62
     5
420
      255
100
AcDbPolyline
 90
        8
 70
     1
 43
0.6
 10
107.6139978344492
 20
11.45218776021334
 10
113.9978994245065
 20
12.16215464987597
 42
-0.9999999999999997
 10
115.9856448587659
 20
12.38321592776287
 10
116.2069449819466
 20
10.39332283722053
 42
-1.0
 10
114.2191995476872
 20
10.17226155933363
 10
107.83529795763
 20
9.462294669670998
 42
-1.0
 10
105.8475525233706
 20
9.241233391784101
 10
105.6262524001898
 20
11.23112648232644
 42
-0.9999999999999997
  0
LWPOLYLINE
  5
D8
330
1F
100
AcDbEntity
  8
0
  6
K5LT_BASIC
 62
     5
420
      255
100
AcDbPolyline
 90
        8
 70
     1
 43
0.6
 10
207.1382389603783
 20
22.37218398727975
 10
213.5221405504356
 20
23.08215087694239
 42
-1.0
 10
215.509885984695
 20
23.30321215482928
 10
215.7311861078757
 20
21.31331906428694
 42
-0.9999999999999997
 10
213.7434406736163
 20
21.09225778640005
 10
207.359539083559
 20
20.38229089673741
 42
-0.9999999999999997
 10
205.3717936492997
 20
20.16122961885052
 10
205.1504935261189
 20
22.15112270939285
 42
-1.0
  0
LWPOLYLINE
  5
D9
330
1F
100
AcDbEntity
  8
0
  6
K5LT_BASIC
 62
     5
420
      255
100
AcDbPolyline
 90
        8
 70
     1
 43
0.6
 10
306.9345487153166
 20
33.72490684880052
 10
313.3184503053739
 20
34.43487373846315
 42
-0.9999999999999997
 10
315.3061957396333
 20
34.65593501635004
 10
315.527495862814
 20
32.6660419258077
 42
-1.0
 10
313.5397504285546
 20
32.44498064792081
 10
307.1558488384974
 20
31.73501375825817
 42
-1.0
 10
305.168103404238
 20
31.51395248037127
 10
304.9468032810572
 20
33.50384557091362
 42
-0.9999999999999997
  0
LWPOLYLINE
  5
DA
330
1F
100
AcDbEntity
  8
0
  6
K5LT_BASIC
 62
     5
420
      255
100
AcDbPolyline
 90
        8
 70
     1
 43
0.6
 10
431.7868082181047
 20
81.6885879523786
 10
431.7868082181047
 20
57.88858795237864
 42
-0.414213562373095
 10
430.1868082181047
 20
56.28858795237861
 10
421.8868082181046
 20
56.28858795237862
 42
-0.414213562373095
 10
420.2868082181047
 20
57.88858795237865
 10
420.2868082181046
 20
81.68858795237861
 42
-0.414213562373095
 10
421.8868082181047
 20
83.28858795237863
 10
430.1868082181047
 20
83.28858795237863
 42
-0.414213562373095
  0
LWPOLYLINE
  5
DB
330
1F
100
AcDbEntity
  8
0
  6
K5LT_BASIC
 62
     5
420
      255
100
AcDbPolyline
 90
        8
 70
     1
 43
0.6
 10
431.7868082181047
 20
103.2638409957985
 10
431.7868082181047
 20
127.0638409957985
 42
0.414213562373095
 10
430.1868082181047
 20
128.6638409957985
 10
421.8868082181047
 20
128.6638409957985
 42
0.414213562373095
 10
420.2868082181047
 20
127.0638409957985
 10
420.2868082181047
 20
103.2638409957985
 42
0.414213562373095
 10
421.8868082181047
 20
101.6638409957985
 10
430.1868082181047
 20
101.6638409957985
 42
0.414213562373095
  0
LWPOLYLINE
  5
DC
330
1F
100
AcDbEntity
  8
0
  6
K5LT_BASIC
 62
     5
420
      255
100
AcDbPolyline
 90
        8
 70
     1
 43
0.6
 10
431.7868082181047
 20
148.6390940392183
 10
431.7868082181047
 20
172.4390940392184
 42
0.414213562373095
 10
430.1868082181047
 20
174.0390940392184
 10
421.8868082181047
 20
174.0390940392184
 42
0.414213562373095
 10
420.2868082181047
 20
172.4390940392184
 10
420.2868082181046
 20
148.6390940392184
 42
0.414213562373095
 10
421.8868082181046
 20
147.0390940392184
 10
430.1868082181047
 20
147.0390940392184
 42
0.414213562373095
  0
LWPOLYLINE
  5
DD
330
1F
100
AcDbEntity
  8
0
  6
K5LT_BASIC
 62
     5
420
      255
100
AcDbPolyline
 90
        8
 70
     1
 43
0.6
 10
431.7868082181047
 20
194.0143470826382
 10
431.7868082181047
 20
217.8143470826382
 42
0.414213562373095
 10
430.1868082181047
 20
219.4143470826383
 10
421.8868082181046
 20
219.4143470826383
 42
0.414213562373095
 10
420.2868082181047
 20
217.8143470826382
 10
420.2868082181046
 20
194.0143470826382
 42
0.414213562373095
 10
421.8868082181046
 20
192.4143470826382
 10
430.1868082181047
 20
192.4143470826382
 42
0.414213562373095
  0
LWPOLYLINE
  5
DE
330
1F
100
AcDbEntity
  8
0
  6
K5LT_BASIC
 62
     5
420
      255
100
AcDbPolyline
 90
        8
 70
     1
 43
0.6
 10
431.7868082181047
 20
239.3896001260581
 10
431.7868082181047
 20
263.1896001260581
 42
0.414213562373095
 10
430.1868082181047
 20
264.7896001260582
 10
421.8868082181046
 20
264.7896001260581
 42
0.414213562373095
 10
420.2868082181047
 20
263.1896001260583
 10
420.2868082181047
 20
239.3896001260582
 42
0.414213562373095
 10
421.8868082181046
 20
237.7896001260581
 10
430.1868082181047
 20
237.7896001260582
 42
0.414213562373095
  0
LWPOLYLINE
  5
DF
330
1F
100
AcDbEntity
  8
0
  6
K5LT_BASIC
 62
     5
420
      255
100
AcDbPolyline
 90
        8
 70
     1
 43
0.6
 10
453.036808218105
 20
239.3896001260581
 10
453.036808218105
 20
263.1896001260582
 42
-0.4142135623730845
 10
454.636808218105
 20
264.7896001260581
 10
462.9368082181051
 20
264.7896001260582
 42
-0.414213562373095
 10
464.536808218105
 20
263.1896001260581
 10
464.536808218105
 20
239.3896001260581
 42
-0.414213562373095
 10
462.9368082181049
 20
237.7896001260581
 10
454.636808218105
 20
237.7896001260583
 42
-0.4142135623730692
  0
LWPOLYLINE
  5
E0
330
1F
100
AcDbEntity
  8
0
  6
K5LT_BASIC
 62
     5
420
      255
100
AcDbPolyline
 90
        8
 70
     1
 43
0.6
 10
453.036808218105
 20
217.8143470826383
 10
453.0368082181049
 20
194.0143470826382
 42
0.41421356237309
 10
454.6368082181049
 20
192.4143470826382
 10
462.9368082181049
 20
192.4143470826381
 42
0.414213562373095
 10
464.5368082181049
 20
194.0143470826382
 10
464.536808218105
 20
217.8143470826382
 42
0.414213562373095
 10
462.9368082181049
 20
219.4143470826382
 10
454.6368082181049
 20
219.4143470826382
 42
0.4142135623730898
  0
LWPOLYLINE
  5
E1
330
1F
100
AcDbEntity
  8
0
  6
K5LT_BASIC
 62
     5
420
      255
100
AcDbPolyline
 90
        8
 70
     1
 43
0.6
 10
453.0368082181049
 20
172.4390940392184
 10
453.0368082181048
 20
148.6390940392183
 42
0.414213562373095
 10
454.6368082181049
 20
147.0390940392183
 10
462.9368082181049
 20
147.0390940392184
 42
0.414213562373095
 10
464.5368082181049
 20
148.6390940392183
 10
464.5368082181049
 20
172.4390940392183
 42
0.414213562373095
 10
462.9368082181049
 20
174.0390940392184
 10
454.6368082181049
 20
174.0390940392183
 42
0.4142135623731001
  0
LWPOLYLINE
  5
E2
330
1F
100
AcDbEntity
  8
0
  6
K5LT_BASIC
 62
     5
420
      255
100
AcDbPolyline
 90
        8
 70
     1
 43
0.6
 10
453.0368082181048
 20
103.2638409957985
 10
453.0368082181047
 20
127.0638409957984
 42
-0.4142135623731001
 10
454.6368082181048
 20
128.6638409957985
 10
462.9368082181048
 20
128.6638409957985
 42
-0.414213562373095
 10
464.5368082181048
 20
127.0638409957985
 10
464.5368082181048
 20
103.2638409957985
 42
-0.414213562373095
 10
462.9368082181048
 20
101.6638409957985
 10
454.6368082181048
 20
101.6638409957985
 42
-0.414213562373095
  0
LWPOLYLINE
  5
E3
330
1F
100
AcDbEntity
  8
0
  6
K5LT_BASIC
 62
     5
420
      255
100
AcDbPolyline
 90
        8
 70
     1
 43
0.6
 10
453.0368082181047
 20
81.68858795237864
 10
453.0368082181047
 20
57.88858795237862
 42
0.4142135623730989
 10
454.6368082181047
 20
56.28858795237858
 10
462.9368082181048
 20
56.28858795237862
 42
0.414213562373095
 10
464.5368082181047
 20
57.88858795237859
 10
464.5368082181047
 20
81.68858795237863
 42
0.414213562373095
 10
462.9368082181047
 20
83.28858795237863
 10
454.6368082181047
 20
83.28858795237859
 42
0.4142135623731001
  0
LWPOLYLINE
  5
E4
330
1F
100
AcDbEntity
  8
0
  6
K5LT_BASIC
 62
     5
420
      255
100
AcDbPolyline
 90
       42
 70
     1
 43
0.6
 10
475.1618082181049
 20
67.59459032820912
 10
475.1618082181049
 20
153.3390942293112
 42
-0.9999999999999999
 10
475.1618082181049
 20
155.3390942293112
 10
477.1618082181049
 20
155.3390942293111
 10
477.1618082181049
 20
165.7390938491254
 10
475.1618082181049
 20
165.7390938491255
 42
-0.9999999999999999
 10
475.1618082181049
 20
167.7390938491255
 10
475.1618082181051
 20
253.7787835089477
 42
-0.9999999999999999
 10
475.161808218105
 20
255.7787835089475
 10
477.161808218105
 20
255.7787835089477
 10
477.161808218105
 20
266.1788641645215
 10
475.161808218105
 20
266.1788641645214
 42
-0.9999999999999999
 10
475.1618082181051
 20
268.1788641645215
 10
475.1618082181051
 20
274.1788641645209
 10
442.4118082181047
 20
274.1788641645211
 10
409.6618082181046
 20
274.178864164521
 10
409.6618082181047
 20
268.1788641645215
 42
-0.9999999999999999
 10
409.6618082181047
 20
266.1788641645214
 10
407.6618082181046
 20
266.1788641645215
 10
407.6618082181046
 20
255.7787835089477
 10
409.6618082181047
 20
255.7787835089478
 42
-0.9999999999999999
 10
409.6618082181046
 20
253.7787835089477
 10
409.6618082181046
 20
167.7390938491255
 42
-0.9999999999999999
 10
409.6618082181046
 20
165.7390938491255
 10
407.6618082181046
 20
165.7390938491255
 10
407.6618082181047
 20
155.3390942293112
 10
409.6618082181046
 20
155.3390942293113
 42
-0.9999999999999999
 10
409.6618082181046
 20
153.3390942293113
 10
409.6618082181046
 20
67.59459032820915
 42
-0.9999999999999999
 10
409.6618082181047
 20
65.59459032820915
 10
407.6618082181046
 20
65.59459032820911
 10
407.6618082181046
 20
55.19450627516007
 10
409.6618082181046
 20
55.19450627516006
 42
-0.9999999999999999
 10
409.6618082181046
 20
53.19450627516012
 10
409.6618082181046
 20
44.1788641645206
 42
0.1496280929536251
 10
442.4118082181047
 20
34.07695440168485
 42
0.149628092953625
 10
475.1618082181048
 20
44.17886416452055
 10
475.1618082181048
 20
53.19450627516002
 42
-0.9999999999999999
 10
475.1618082181048
 20
55.19450627516002
 10
477.1618082181047
 20
55.19450627516002
 10
477.1618082181048
 20
65.59459032820905
 10
475.1618082181049
 20
65.59459032820912
 42
-1.000000000000028
  0
LWPOLYLINE
  5
E5
330
1F
100
AcDbEntity
  8
0
  6
K5LT_BASIC
 62
     5
420
      255
100
AcDbPolyline
 90
       18
 70
     1
 43
0.6
 10
524.7343431741897
 20
151.8705327753417
 10
557.4843431741896
 20
151.836548082975
 10
590.2343431741897
 20
151.8705327753417
 10
590.2343431741897
 20
166.3328801818934
 42
-0.999367424891095
 10
590.2343431741896
 20
168.3328797814889
 10
592.2343431741897
 20
168.3341453321113
 10
592.2343431741897
 20
178.7579477686032
 10
590.2343431741896
 20
178.7566822179808
 42
-1.000632975513459
 10
590.2343431741897
 20
180.7566818175764
 10
590.2343431741897
 20
194.8418566795678
 10
557.4843431741897
 20
194.8078719872012
 10
524.7343431741897
 20
194.8418566795679
 10
524.7343431741897
 20
180.7566818175764
 42
-1.000632975513459
 10
524.7343431741897
 20
178.7566822179809
 10
522.7343431741896
 20
178.7579477686033
 10
522.7343431741896
 20
168.3341453321114
 10
524.7343431741896
 20
168.332879781489
 42
-0.9993674248910952
 10
524.7343431741897
 20
166.3328801818935
  0
LWPOLYLINE
  5
E6
330
1F
100
AcDbEntity
  8
0
  6
K5LT_BASIC
 62
     5
420
      255
100
AcDbPolyline
 90
       14
 70
     1
 43
0.6
 10
549.5787053596981
 20
171.7576783082331
 10
532.8314231468551
 20
160.770611308484
 42
-0.5965153912615747
 10
529.7343431741895
 20
162.4428599543427
 10
529.7343431741893
 20
163.4603868628347
 42
-0.1271100500585635
 10
529.9846992673849
 20
164.4292760202628
 42
0.2583949786991514
 10
529.9846992673848
 20
170.2364839431196
 42
-0.1271100500585602
 10
529.7343431741895
 20
171.2053731005477
 10
529.7343431741895
 20
175.8825552191074
 42
-0.1270581523136362
 10
529.9845013679856
 20
176.8510869187753
 42
0.2582860157101632
 10
529.9845013679857
 20
182.662277116782
 42
-0.1270581523136329
 10
529.7343431741895
 20
183.6308088164498
 10
529.7343431741895
 20
184.2925167117522
 42
-0.5947494568691823
 10
532.8226892620743
 20
185.9704627159448
 10
549.5699714749173
 20
175.1078729582844
 42
-0.5416283339892934
  0
LWPOLYLINE
  5
E7
330
1F
100
AcDbEntity
  8
0
  6
K5LT_BASIC
 62
     5
420
      255
100
AcDbPolyline
 90
        6
 70
     1
 43
0.6
 10
556.387263201524
 20
169.0484714207183
 10
543.3910357378991
 20
160.5222866898415
 42
0.7445196858224125
 10
544.4860403106214
 20
156.8500391208044
 10
570.5196736303051
 20
156.8230240057033
 42
0.7453264511826817
 10
571.6188290029138
 20
160.4952715747405
 10
558.5814231468553
 20
169.0484714207183
 42
0.2987488262546766
  0
LWPOLYLINE
  5
E8
330
1F
100
AcDbEntity
  8
0
  6
K5LT_BASIC
 62
     5
420
      255
100
AcDbPolyline
 90
       14
 70
     1
 43
0.6
 10
565.3899809886813
 20
171.7576783082331
 10
582.1372632015243
 20
160.7706113084841
 42
0.5965153912615767
 10
585.2343431741899
 20
162.4428599543428
 10
585.23434317419
 20
163.4603868628348
 42
0.1271100500585667
 10
584.9839870809944
 20
164.429276020263
 42
-0.25839497869915
 10
584.9839870809944
 20
170.2364839431197
 42
0.1271100500585604
 10
585.2343431741898
 20
171.2053731005478
 10
585.2343431741898
 20
175.8825552191075
 42
0.1270581523136394
 10
584.9841849803936
 20
176.8510869187754
 42
-0.258286015710162
 10
584.9841849803937
 20
182.6622771167821
 42
0.1270581523136332
 10
585.2343431741898
 20
183.6308088164499
 10
585.2343431741898
 20
184.2925167117523
 42
0.5947494568691777
 10
582.145997086305
 20
185.9704627159449
 10
565.398714873462
 20
175.1078729582844
 42
0.541628333989311
  0
LWPOLYLINE
  5
E9
330
1F
100
AcDbEntity
  8
0
  6
K5LT_BASIC
 62
     5
420
      255
100
AcDbPolyline
 90
        6
 70
     1
 43
0.6
 10
558.5814231468553
 20
177.6639180341914
 10
571.4742103734357
 20
186.1222407203236
 42
0.7445196858224125
 10
570.3792058007132
 20
189.7944882893607
 10
544.5527807042821
 20
189.8212883843785
 42
0.7453264511826814
 10
543.4536253316734
 20
186.1490408153414
 10
556.3872632015241
 20
177.6639180341914
 42
0.298748826254677
  0
LWPOLYLINE
  5
EA
330
1F
100
AcDbEntity
  8
0
  6
K5LT_BASIC
 62
     5
420
      255
100
AcDbPolyline
 90
        6
 70
     1
 43
0.6
 10
537.3802867652026
 20
265.1568988211374
 10
555.6728705998354
 20
245.4693495775234
 42
0.4355599549913348
 10
559.333922314531
 20
245.4673409548275
 10
577.6439026695177
 20
265.130300552565
 42
0.655135457199356
 10
575.8159904926325
 20
269.3340001634642
 10
539.2134263030131
 20
269.3585898093407
 42
0.6552234673047983
  0
LWPOLYLINE
  5
EB
330
1F
100
AcDbEntity
  8
0
  6
K5LT_BASIC
 62
     5
420
      255
100
AcDbPolyline
 90
       16
 70
     1
 43
0.6
 10
551.8198596340659
 20
240.8014270095911
 10
533.4433880322507
 20
260.5792611775368
 42
0.3085930884784415
 10
530.6958374633051
 20
261.203677562074
 42
0.3079531014352061
 10
529.7454921220191
 20
259.8090205014875
 10
529.7447696474827
 20
258.7335914073853
 42
0.130249595662991
 10
529.9542041666379
 20
257.9411072462746
 42
-0.2649948170475349
 10
529.95021193888
 20
251.9985339576091
 42
0.1302495956629798
 10
529.7397128256562
 20
251.2063319084089
 10
529.7396675376086
 20
227.0534900006329
 42
0.1306081944052184
 10
529.9502196444103
 20
226.2590453720092
 42
-0.2657496798424842
 10
529.9462175426069
 20
220.3017742146048
 42
0.1306081944051934
 10
529.7345982086578
 20
219.507613201254
 10
529.7338743406891
 20
218.4301099336627
 42
0.3069894939666077
 10
530.6774361467444
 20
217.0361281070834
 42
0.3096250459867848
 10
533.434424251967
 20
217.6540514737616
 10
551.8179912782914
 20
237.3960352821967
 42
0.3931845849044127
  0
LWPOLYLINE
  5
EC
330
1F
100
AcDbEntity
  8
0
  6
K5LT_BASIC
 62
     5
420
      255
100
AcDbPolyline
 90
        6
 70
     1
 43
0.6
 10
555.6658778485436
 20
232.723887644865
 10
537.3980819261908
 20
213.1062296137297
 42
0.655135457199359
 10
539.2259941030761
 20
208.9025300028304
 10
575.7442295073362
 20
208.8779970091316
 42
0.6552234673047956
 10
577.5773690451466
 20
213.079687997335
 10
559.3269295632392
 20
232.7218790221691
 42
0.4355599549913346
  0
LWPOLYLINE
  5
ED
330
1F
100
AcDbEntity
  8
0
  6
K5LT_BASIC
 62
     5
420
      255
100
AcDbPolyline
 90
       16
 70
     1
 43
0.6
 10
563.1799405290086
 20
237.3898015901015
 10
581.5492220065908
 20
217.6197058546367
 42
0.3107141040750921
 10
584.3147530681453
 20
217.002451241636
 42
0.3058353785438006
 10
585.254310113866
 20
218.3928112393008
 10
585.2550339818345
 20
219.4703145068921
 42
0.1306081944051986
 10
585.044481875033
 20
220.2647591355156
 42
-0.2657496798424851
 10
585.0484839768362
 20
226.2220302929201
 42
0.130608194405218
 10
585.2601033107856
 20
227.016191306271
 10
585.260148598834
 20
251.1690332140471
 42
0.1302495956629857
 10
585.0507140796789
 20
251.9615173751577
 42
-0.264994817047536
 10
585.0547063074366
 20
257.9040906638231
 42
0.1302495956629915
 10
585.2652054206605
 20
258.6962927130234
 10
585.2659278951968
 20
259.7717218071255
 42
0.3091134984748204
 10
584.3115404429906
 20
261.1699794208394
 42
0.3075004299424572
 10
581.5725950813528
 20
260.5449297422698
 10
563.1818088847832
 20
240.7951933174958
 42
0.3931845849044124
  0
LWPOLYLINE
  5
EE
330
1F
100
AcDbEntity
  8
0
  6
K5LT_BASIC
 62
     5
420
      255
100
AcDbPolyline
 90
       28
 70
     1
 43
0.6
 10
524.7343431741897
 20
203.9089123386352
 10
590.2343260610195
 20
203.8649093727294
 10
590.240005062961
 20
209.9149126012527
 42
-1.002461691152847
 10
590.2418354777587
 20
211.8649058482699
 10
592.2418345966439
 20
211.8630284940849
 10
592.251596838449
 20
222.263023959172
 10
590.2563921067951
 20
222.2648968129733
 42
-1.00246169115425
 10
590.2582225215901
 20
224.2148900599905
 10
590.262020877884
 20
253.954307799825
 42
-0.9999999999997667
 10
590.2686456799097
 20
255.9042965464587
 10
592.2686447987953
 20
255.9024191922738
 10
592.2784070406004
 20
266.3024146573607
 10
590.2784079217154
 20
266.3042920115456
 42
-0.9999999999999999
 10
590.2802383420455
 20
268.2542911524586
 10
590.2859173384546
 20
274.3042884870862
 10
524.7450331920961
 20
274.3483189305065
 10
524.7425833963304
 20
268.2983194264982
 42
-0.9999999999999999
 10
524.7417937927362
 20
266.3483195863632
 10
522.7417939567006
 20
266.3491294362032
 10
522.7375827375137
 20
255.9491302419327
 10
524.7375825735511
 20
255.9483203920928
 42
-1.002461691151982
 10
524.7367929723423
 20
253.9983264458558
 10
524.7377890049961
 20
224.2589067646536
 42
-1.002461691153911
 10
524.7369994037862
 20
222.3089128184166
 10
522.7417939567005
 20
222.3097207268888
 10
522.7375827375137
 20
211.9097215326184
 10
524.7375825735493
 20
211.9089116827784
 42
-1.002461691152976
 10
524.7367929723421
 20
209.9589177365414
  0
LWPOLYLINE
  5
EF
330
1F
100
AcDbEntity
  8
0
  6
K5LT_BASIC
 62
     5
420
      255
100
AcDbPolyline
 90
       28
 70
     1
 43
0.6
 10
590.2752397763928
 20
43.80357141693872
 42
-0.3294846487402265
 10
524.7343431741898
 20
43.78608011439621
 10
524.7343431741898
 20
49.83608011439619
 42
0.9999999999999999
 10
524.7343431741898
 20
51.78608011439621
 10
522.7343431741898
 20
51.78608011439621
 10
522.7343431741897
 20
62.18608016128053
 10
524.7343431741901
 20
62.18608016128049
 42
0.9999999999998243
 10
524.7391375635304
 20
64.13607426738207
 10
524.7295487848492
 20
100.0657685006042
 42
1.002461691154183
 10
524.7295487848467
 20
102.0157626067058
 10
522.7343431741898
 20
102.0157626067058
 10
522.7343431741897
 20
112.4157626535901
 10
524.7343431741897
 20
112.4157626535902
 42
1.002461691152896
 10
524.7343431741897
 20
114.3657567596917
 10
524.7343431741897
 20
120.4157626535901
 10
590.2343385090909
 20
120.4332430405597
 10
590.2375677134937
 20
114.3832380084589
 42
1.002461691152968
 10
590.2386085272819
 20
112.4332441801257
 10
592.2386082423905
 20
112.4343116846734
 10
592.2441592660638
 20
102.034313119225
 10
590.2489539396151
 20
102.0332481736935
 42
1.002461691153903
 10
590.2499947534011
 20
100.0832543453602
 10
590.2643779207401
 20
64.15356267115436
 42
1.002461691152033
 10
590.265418734528
 20
62.20356884282116
 10
592.265418449637
 20
62.20463634736895
 10
592.2709694733103
 20
51.80463778192042
 10
590.2709697582018
 20
51.80357027737272
 42
0.9999999999999415
 10
590.2720105751359
 20
49.85357055514193
  0
ENDSEC
  0
SECTION
  2
OBJECTS
  0
DICTIONARY
  5
C
330
0
100
AcDbDictionary
281
     1
  3
ACAD_GROUP
350
D
  3
ACAD_LAYOUT
350
1A
  3
ACAD_MATERIAL
350
3B
  3
ACAD_MLEADERSTYLE
350
135
  3
ACAD_MLINESTYLE
350
17
  3
ACAD_PLOTSETTINGS
350
19
  3
ACAD_PLOTSTYLENAME
350
E
  3
ACAD_SCALELIST
350
F0
  3
ACAD_TABLESTYLE
350
134
  3
ACAD_VISUALSTYLE
350
2A
  3
AcDbVariableDictionary
350
112
  0
DICTIONARY
  5
D
102
{ACAD_REACTORS
330
C
102
}
330
C
100
AcDbDictionary
281
     1
  0
DICTIONARY
  5
1A
102
{ACAD_REACTORS
330
C
102
}
330
C
100
AcDbDictionary
281
     1
  3
Layout1
350
1E
  3
Layout2
350
26
  3
Model
350
22
  0
DICTIONARY
  5
3B
102
{ACAD_REACTORS
330
C
102
}
330
C
100
AcDbDictionary
281
     1
  3
ByBlock
350
3D
  3
ByLayer
350
3C
  3
Global
350
3E
  0
DICTIONARY
  5
135
102
{ACAD_REACTORS
330
C
102
}
330
C
100
AcDbDictionary
281
     1
  0
DICTIONARY
  5
17
102
{ACAD_REACTORS
330
C
102
}
330
C
100
AcDbDictionary
281
     1
  3
Standard
350
18
  0
DICTIONARY
  5
19
102
{ACAD_REACTORS
330
C
102
}
330
C
100
AcDbDictionary
281
     1
  0
ACDBDICTIONARYWDFLT
  5
E
102
{ACAD_REACTORS
330
C
102
}
330
C
100
AcDbDictionary
281
     1
  3
Normal
350
F
100
AcDbDictionaryWithDefault
340
F
  0
DICTIONARY
  5
F0
102
{ACAD_REACTORS
330
C
102
}
330
C
100
AcDbDictionary
281
     1
  3
A0
350
F1
  3
A1
350
F2
  3
A2
350
F3
  3
A3
350
F4
  3
A4
350
F5
  3
A5
350
F6
  3
A6
350
F7
  3
A7
350
F8
  3
A8
350
F9
  3
A9
350
FA
  3
B0
350
FB
  3
B1
350
FC
  3
B2
350
FD
  3
B3
350
FE
  3
B4
350
FF
  3
B5
350
100
  3
B6
350
101
  3
B7
350
102
  3
B8
350
103
  3
B9
350
104
  3
C0
350
105
  3
C1
350
106
  3
C2
350
107
  3
C3
350
108
  3
C4
350
109
  3
C5
350
10A
  3
C6
350
10B
  3
C7
350
10C
  3
C8
350
10D
  3
C9
350
10E
  3
D0
350
10F
  3
D1
350
110
  3
D2
350
111
  0
DICTIONARY
  5
134
102
{ACAD_REACTORS
330
C
102
}
330
C
100
AcDbDictionary
281
     1
  0
DICTIONARY
  5
2A
102
{ACAD_REACTORS
330
C
102
}
330
C
100
AcDbDictionary
281
     1
  3
2dWireframe
350
2F
  3
3D Hidden
350
31
  3
3dWireframe
350
30
  3
Basic
350
32
  3
Brighten
350
36
  3
ColorChange
350
3A
  3
Conceptual
350
34
  3
Dim
350
35
  3
Facepattern
350
39
  3
Flat
350
2B
  3
FlatWithEdges
350
2C
  3
Gouraud
350
2D
  3
GouraudWithEdges
350
2E
  3
Linepattern
350
38
  3
Realistic
350
33
  3
Thicken
350
37
  0
DICTIONARY
  5
112
102
{ACAD_REACTORS
330
C
102
}
330
C
100
AcDbDictionary
281
     1
  3
CANNOSCALE
350
113
  0
LAYOUT
  5
1E
102
{ACAD_REACTORS
330
1A
102
}
330
1A
100
AcDbPlotSettings
  1

  2
none_device
  4

  6

 40
0.0
 41
0.0
 42
0.0
 43
0.0
 44
0.0
 45
0.0
 46
0.0
 47
0.0
 48
0.0
 49
0.0
140
0.0
141
0.0
142
1.0
143
1.0
 70
   688
 72
     0
 73
     0
 74
     5
  7

 75
    16
 76
     0
 77
     2
 78
   300
147
1.0
148
0.0
149
0.0
100
AcDbLayout
  1
Layout1
 70
     1
 71
     1
 10
0.0
 20
0.0
 11
420.0
 21
297.0
 12
0.0
 22
0.0
 32
0.0
 14
1.000000000000000E+20
 24
1.000000000000000E+20
 34
1.000000000000000E+20
 15
-1.000000000000000E+20
 25
-1.000000000000000E+20
 35
-1.000000000000000E+20
146
0.0
 13
0.0
 23
0.0
 33
0.0
 16
1.0
 26
0.0
 36
0.0
 17
0.0
 27
1.0
 37
0.0
 76
     0
330
1B
  0
LAYOUT
  5
26
102
{ACAD_REACTORS
330
1A
102
}
330
1A
100
AcDbPlotSettings
  1

  2
none_device
  4

  6

 40
0.0
 41
0.0
 42
0.0
 43
0.0
 44
0.0
 45
0.0
 46
0.0
 47
0.0
 48
0.0
 49
0.0
140
0.0
141
0.0
142
1.0
143
1.0
 70
   688
 72
     0
 73
     0
 74
     5
  7

 75
    16
 76
     0
 77
     2
 78
   300
147
1.0
148
0.0
149
0.0
100
AcDbLayout
  1
Layout2
 70
     1
 71
     2
 10
0.0
 20
0.0
 11
0.0
 21
0.0
 12
0.0
 22
0.0
 32
0.0
 14
0.0
 24
0.0
 34
0.0
 15
0.0
 25
0.0
 35
0.0
146
0.0
 13
0.0
 23
0.0
 33
0.0
 16
1.0
 26
0.0
 36
0.0
 17
0.0
 27
1.0
 37
0.0
 76
     0
330
23
  0
LAYOUT
  5
22
102
{ACAD_REACTORS
330
1A
102
}
330
1A
100
AcDbPlotSettings
  1

  2
none_device
  4

  6

 40
0.0
 41
0.0
 42
0.0
 43
0.0
 44
0.0
 45
0.0
 46
0.0
 47
0.0
 48
0.0
 49
0.0
140
0.0
141
0.0
142
1.0
143
1.0
 70
  1712
 72
     0
 73
     0
 74
     0
  7

 75
     0
 76
     0
 77
     2
 78
   300
147
1.0
148
0.0
149
0.0
100
AcDbLayout
  1
Model
 70
     1
 71
     0
 10
0.0
 20
0.0
 11
420.0
 21
297.0
 12
0.0
 22
0.0
 32
0.0
 14
1.000000000000000E+20
 24
1.000000000000000E+20
 34
1.000000000000000E+20
 15
-1.000000000000000E+20
 25
-1.000000000000000E+20
 35
-1.000000000000000E+20
146
0.0
 13
0.0
 23
0.0
 33
0.0
 16
1.0
 26
0.0
 36
0.0
 17
0.0
 27
1.0
 37
0.0
 76
     0
330
1F
331
29
  0
MATERIAL
  5
3D
102
{ACAD_REACTORS
330
3B
102
}
330
3B
100
AcDbMaterial
  1
ByBlock
 72
     1
 94
      127
  0
MATERIAL
  5
3C
102
{ACAD_REACTORS
330
3B
102
}
330
3B
100
AcDbMaterial
  1
ByLayer
 72
     1
 94
      127
  0
MATERIAL
  5
3E
102
{ACAD_REACTORS
330
3B
102
}
330
3B
100
AcDbMaterial
  1
Global
 72
     1
 94
      127
  0
MLINESTYLE
  5
18
102
{ACAD_REACTORS
330
17
102
}
330
17
100
AcDbMlineStyle
  2
Standard
 70
     0
  3

 62
   256
 51
90.0
 52
90.0
 71
     2
 49
0.5
 62
   256
  6
BYLAYER
 49
-0.5
 62
   256
  6
BYLAYER
  0
ACDBPLACEHOLDER
  5
F
102
{ACAD_REACTORS
330
E
102
}
330
E
  0
SCALE
  5
F1
102
{ACAD_REACTORS
330
F0
102
}
330
F0
100
AcDbScale
 70
     0
300
1:1
140
1.0
141
1.0
290
     1
  0
SCALE
  5
F2
102
{ACAD_REACTORS
330
F0
102
}
330
F0
100
AcDbScale
 70
     0
300
1:2
140
1.0
141
2.0
290
     0
  0
SCALE
  5
F3
102
{ACAD_REACTORS
330
F0
102
}
330
F0
100
AcDbScale
 70
     0
300
1:4
140
1.0
141
4.0
290
     0
  0
SCALE
  5
F4
102
{ACAD_REACTORS
330
F0
102
}
330
F0
100
AcDbScale
 70
     0
300
1:5
140
1.0
141
5.0
290
     0
  0
SCALE
  5
F5
102
{ACAD_REACTORS
330
F0
102
}
330
F0
100
AcDbScale
 70
     0
300
1:8
140
1.0
141
8.0
290
     0
  0
SCALE
  5
F6
102
{ACAD_REACTORS
330
F0
102
}
330
F0
100
AcDbScale
 70
     0
300
1:10
140
1.0
141
10.0
290
     0
  0
SCALE
  5
F7
102
{ACAD_REACTORS
330
F0
102
}
330
F0
100
AcDbScale
 70
     0
300
1:16
140
1.0
141
16.0
290
     0
  0
SCALE
  5
F8
102
{ACAD_REACTORS
330
F0
102
}
330
F0
100
AcDbScale
 70
     0
300
1:20
140
1.0
141
20.0
290
     0
  0
SCALE
  5
F9
102
{ACAD_REACTORS
330
F0
102
}
330
F0
100
AcDbScale
 70
     0
300
1:30
140
1.0
141
30.0
290
     0
  0
SCALE
  5
FA
102
{ACAD_REACTORS
330
F0
102
}
330
F0
100
AcDbScale
 70
     0
300
1:40
140
1.0
141
40.0
290
     0
  0
SCALE
  5
FB
102
{ACAD_REACTORS
330
F0
102
}
330
F0
100
AcDbScale
 70
     0
300
1:50
140
1.0
141
50.0
290
     0
  0
SCALE
  5
FC
102
{ACAD_REACTORS
330
F0
102
}
330
F0
100
AcDbScale
 70
     0
300
1:100
140
1.0
141
100.0
290
     0
  0
SCALE
  5
FD
102
{ACAD_REACTORS
330
F0
102
}
330
F0
100
AcDbScale
 70
     0
300
2:1
140
2.0
141
1.0
290
     0
  0
SCALE
  5
FE
102
{ACAD_REACTORS
330
F0
102
}
330
F0
100
AcDbScale
 70
     0
300
4:1
140
4.0
141
1.0
290
     0
  0
SCALE
  5
FF
102
{ACAD_REACTORS
330
F0
102
}
330
F0
100
AcDbScale
 70
     0
300
8:1
140
8.0
141
1.0
290
     0
  0
SCALE
  5
100
102
{ACAD_REACTORS
330
F0
102
}
330
F0
100
AcDbScale
 70
     0
300
10:1
140
10.0
141
1.0
290
     0
  0
SCALE
  5
101
102
{ACAD_REACTORS
330
F0
102
}
330
F0
100
AcDbScale
 70
     0
300
100:1
140
100.0
141
1.0
290
     0
  0
SCALE
  5
102
102
{ACAD_REACTORS
330
F0
102
}
330
F0
100
AcDbScale
 70
     0
300
1/128" = 1'-0"
140
0.0078125
141
12.0
290
     0
  0
SCALE
  5
103
102
{ACAD_REACTORS
330
F0
102
}
330
F0
100
AcDbScale
 70
     0
300
1/64" = 1'-0"
140
0.015625
141
12.0
290
     0
  0
SCALE
  5
104
102
{ACAD_REACTORS
330
F0
102
}
330
F0
100
AcDbScale
 70
     0
300
1/32" = 1'-0"
140
0.03125
141
12.0
290
     0
  0
SCALE
  5
105
102
{ACAD_REACTORS
330
F0
102
}
330
F0
100
AcDbScale
 70
     0
300
1/16" = 1'-0"
140
0.0625
141
12.0
290
     0
  0
SCALE
  5
106
102
{ACAD_REACTORS
330
F0
102
}
330
F0
100
AcDbScale
 70
     0
300
3/32" = 1'-0"
140
0.09375
141
12.0
290
     0
  0
SCALE
  5
107
102
{ACAD_REACTORS
330
F0
102
}
330
F0
100
AcDbScale
 70
     0
300
1/8" = 1'-0"
140
0.125
141
12.0
290
     0
  0
SCALE
  5
108
102
{ACAD_REACTORS
330
F0
102
}
330
F0
100
AcDbScale
 70
     0
300
3/16" = 1'-0"
140
0.1875
141
12.0
290
     0
  0
SCALE
  5
109
102
{ACAD_REACTORS
330
F0
102
}
330
F0
100
AcDbScale
 70
     0
300
1/4" = 1'-0"
140
0.25
141
12.0
290
     0
  0
SCALE
  5
10A
102
{ACAD_REACTORS
330
F0
102
}
330
F0
100
AcDbScale
 70
     0
300
3/8" = 1'-0"
140
0.375
141
12.0
290
     0
  0
SCALE
  5
10B
102
{ACAD_REACTORS
330
F0
102
}
330
F0
100
AcDbScale
 70
     0
300
1/2" = 1'-0"
140
0.5
141
12.0
290
     0
  0
SCALE
  5
10C
102
{ACAD_REACTORS
330
F0
102
}
330
F0
100
AcDbScale
 70
     0
300
3/4" = 1'-0"
140
0.75
141
12.0
290
     0
  0
SCALE
  5
10D
102
{ACAD_REACTORS
330
F0
102
}
330
F0
100
AcDbScale
 70
     0
300
1" = 1'-0"
140
1.0
141
12.0
290
     0
  0
SCALE
  5
10E
102
{ACAD_REACTORS
330
F0
102
}
330
F0
100
AcDbScale
 70
     0
300
1-1/2" = 1'-0"
140
1.5
141
12.0
290
     0
  0
SCALE
  5
10F
102
{ACAD_REACTORS
330
F0
102
}
330
F0
100
AcDbScale
 70
     0
300
3" = 1'-0"
140
3.0
141
12.0
290
     0
  0
SCALE
  5
110
102
{ACAD_REACTORS
330
F0
102
}
330
F0
100
AcDbScale
 70
     0
300
6" = 1'-0"
140
6.0
141
12.0
290
     0
  0
SCALE
  5
111
102
{ACAD_REACTORS
330
F0
102
}
330
F0
100
AcDbScale
 70
     0
300
1'-0" = 1'-0"
140
12.0
141
12.0
290
     0
  0
VISUALSTYLE
  5
2F
102
{ACAD_REACTORS
330
2A
102
}
102
{ACAD_XDICTIONARY
360
11C
102
}
330
2A
100
AcDbVisualStyle
  2
2dWireframe
 70
     4
 71
     0
 72
     2
 73
     0
 90
        0
 40
-0.6
 41
-30.0
 62
     5
 63
     7
421
 16777215
 74
     1
 91
        4
 64
     7
 65
   257
 75
     1
175
     1
 42
1.0
 92
        0
 66
   257
 43
1.0
 76
     1
 77
     6
 78
     2
 67
     7
 79
     5
170
     0
171
     0
290
     0
174
     0
 93
        1
 44
0.0
173
     0
291
     0
 45
0.0
  0
VISUALSTYLE
  5
31
102
{ACAD_REACTORS
330
2A
102
}
102
{ACAD_XDICTIONARY
360
120
102
}
330
2A
100
AcDbVisualStyle
  2
3D Hidden
 70
     6
 71
     1
 72
     2
 73
     2
 90
        0
 40
-0.6
 41
-30.0
 62
     5
 63
     7
421
 16777215
 74
     2
 91
        2
 64
     7
 65
   257
 75
     2
175
     1
 42
40.0
 92
        0
 66
   257
 43
1.0
 76
     1
 77
     6
 78
     2
 67
     7
 79
     3
170
     0
171
     0
290
     0
174
     0
 93
        1
 44
0.0
173
     0
291
     0
 45
0.0
  0
VISUALSTYLE
  5
30
102
{ACAD_REACTORS
330
2A
102
}
102
{ACAD_XDICTIONARY
360
11E
102
}
330
2A
100
AcDbVisualStyle
  2
3dWireframe
 70
     5
 71
     0
 72
     2
 73
     0
 90
        0
 40
-0.6
 41
-30.0
 62
     5
 63
     7
421
 16777215
 74
     1
 91
        4
 64
     7
 65
   257
 75
     1
175
     1
 42
1.0
 92
        0
 66
   257
 43
1.0
 76
     1
 77
     6
 78
     2
 67
     7
 79
     5
170
     0
171
     0
290
     0
174
     0
 93
        1
 44
0.0
173
     0
291
     0
 45
0.0
  0
VISUALSTYLE
  5
32
102
{ACAD_REACTORS
330
2A
102
}
102
{ACAD_XDICTIONARY
360
122
102
}
330
2A
100
AcDbVisualStyle
  2
Basic
 70
     7
 71
     1
 72
     0
 73
     1
 90
        0
 40
-0.6
 41
-30.0
 62
     5
 63
     7
421
 16777215
 74
     0
 91
        4
 64
     7
 65
   257
 75
     1
175
     1
 42
1.0
 92
        8
 66
     7
 43
1.0
 76
     1
 77
     6
 78
     2
 67
     7
 79
     5
170
     0
171
     0
290
     0
174
     0
 93
        1
 44
0.0
173
     0
291
     1
 45
0.0
  0
VISUALSTYLE
  5
36
102
{ACAD_REACTORS
330
2A
102
}
102
{ACAD_XDICTIONARY
360
12A
102
}
330
2A
100
AcDbVisualStyle
  2
Brighten
 70
    12
 71
     2
 72
     2
 73
     0
 90
        0
 40
-0.6
 41
-30.0
 62
     5
 63
     7
421
 16777215
 74
     1
 91
        4
 64
     7
 65
   257
 75
     1
175
     1
 42
1.0
 92
        8
 66
     7
 43
1.0
 76
     1
 77
     6
 78
     2
 67
     7
 79
     5
170
     0
171
     0
290
     0
174
     0
 93
        1
 44
50.0
173
     0
291
     1
 45
0.0
  0
VISUALSTYLE
  5
3A
102
{ACAD_REACTORS
330
2A
102
}
102
{ACAD_XDICTIONARY
360
132
102
}
330
2A
100
AcDbVisualStyle
  2
ColorChange
 70
    16
 71
     2
 72
     2
 73
     3
 90
        0
 40
-0.6
 41
-30.0
 62
     5
 63
     8
421
  8421504
 74
     1
 91
        4
 64
     7
 65
   257
 75
     1
175
     1
 42
1.0
 92
        8
 66
     8
424
  8421504
 43
1.0
 76
     1
 77
     6
 78
     2
 67
     7
 79
     5
170
     0
171
     0
290
     0
174
     0
 93
        1
 44
0.0
173
     0
291
     1
 45
0.0
  0
VISUALSTYLE
  5
34
102
{ACAD_REACTORS
330
2A
102
}
102
{ACAD_XDICTIONARY
360
126
102
}
330
2A
100
AcDbVisualStyle
  2
Conceptual
 70
     9
 71
     3
 72
     2
 73
     0
 90
        0
 40
-0.6
 41
-30.0
 62
     5
 63
     7
421
 16777215
 74
     2
 91
        2
 64
     7
 65
   257
 75
     1
175
     1
 42
40.0
 92
        8
 66
     7
 43
1.0
 76
     1
 77
     6
 78
     2
 67
     7
 79
     3
170
     0
171
     0
290
     0
174
     0
 93
        1
 44
0.0
173
     0
291
     0
 45
0.0
  0
VISUALSTYLE
  5
35
102
{ACAD_REACTORS
330
2A
102
}
102
{ACAD_XDICTIONARY
360
128
102
}
330
2A
100
AcDbVisualStyle
  2
Dim
 70
    11
 71
     2
 72
     2
 73
     0
 90
        0
 40
-0.6
 41
-30.0
 62
     5
 63
     7
421
 16777215
 74
     1
 91
        4
 64
     7
 65
   257
 75
     1
175
     1
 42
1.0
 92
        8
 66
     7
 43
1.0
 76
     1
 77
     6
 78
     2
 67
     7
 79
     5
170
     0
171
     0
290
     0
174
     0
 93
        1
 44
-50.0
173
     0
291
     1
 45
0.0
  0
VISUALSTYLE
  5
39
102
{ACAD_REACTORS
330
2A
102
}
102
{ACAD_XDICTIONARY
360
130
102
}
330
2A
100
AcDbVisualStyle
  2
Facepattern
 70
    15
 71
     2
 72
     2
 73
     0
 90
        0
 40
-0.6
 41
-30.0
 62
     5
 63
     7
421
 16777215
 74
     1
 91
        4
 64
     7
 65
   257
 75
     1
175
     1
 42
1.0
 92
        8
 66
     7
 43
1.0
 76
     1
 77
     6
 78
     2
 67
     7
 79
     5
170
     0
171
     0
290
     0
174
     0
 93
        1
 44
0.0
173
     0
291
     1
 45
0.0
  0
VISUALSTYLE
  5
2B
102
{ACAD_REACTORS
330
2A
102
}
102
{ACAD_XDICTIONARY
360
114
102
}
330
2A
100
AcDbVisualStyle
  2
Flat
 70
     0
 71
     2
 72
     1
 73
     1
 90
        2
 40
-0.6
 41
30.0
 62
     5
 63
     7
421
 16777215
 74
     0
 91
        4
 64
     7
 65
   257
 75
     1
175
     1
 42
1.0
 92
        8
 66
     7
 43
1.0
 76
     1
 77
     6
 78
     2
 67
     7
 79
     5
170
     0
171
     0
290
     0
174
     0
 93
       13
 44
0.0
173
     0
291
     1
 45
0.0
  0
VISUALSTYLE
  5
2C
102
{ACAD_REACTORS
330
2A
102
}
102
{ACAD_XDICTIONARY
360
116
102
}
330
2A
100
AcDbVisualStyle
  2
FlatWithEdges
 70
     1
 71
     2
 72
     1
 73
     1
 90
        2
 40
-0.6
 41
30.0
 62
     5
 63
     7
421
 16777215
 74
     1
 91
        4
 64
     7
 65
   257
 75
     1
175
     1
 42
1.0
 92
        0
 66
   257
 43
1.0
 76
     1
 77
     6
 78
     2
 67
     7
 79
     5
170
     0
171
     0
290
     0
174
     0
 93
       13
 44
0.0
173
     0
291
     1
 45
0.0
  0
VISUALSTYLE
  5
2D
102
{ACAD_REACTORS
330
2A
102
}
102
{ACAD_XDICTIONARY
360
118
102
}
330
2A
100
AcDbVisualStyle
  2
Gouraud
 70
     2
 71
     2
 72
     2
 73
     1
 90
        2
 40
-0.6
 41
30.0
 62
     5
 63
     7
421
 16777215
 74
     0
 91
        4
 64
     7
 65
   257
 75
     1
175
     1
 42
1.0
 92
        0
 66
     7
 43
1.0
 76
     1
 77
     6
 78
     2
 67
     7
 79
     5
170
     0
171
     0
290
     0
174
     0
 93
       13
 44
0.0
173
     0
291
     1
 45
0.0
  0
VISUALSTYLE
  5
2E
102
{ACAD_REACTORS
330
2A
102
}
102
{ACAD_XDICTIONARY
360
11A
102
}
330
2A
100
AcDbVisualStyle
  2
GouraudWithEdges
 70
     3
 71
     2
 72
     2
 73
     1
 90
        2
 40
-0.6
 41
30.0
 62
     5
 63
     7
421
 16777215
 74
     1
 91
        4
 64
     7
 65
   257
 75
     1
175
     1
 42
1.0
 92
        0
 66
   257
 43
1.0
 76
     1
 77
     6
 78
     2
 67
     7
 79
     5
170
     0
171
     0
290
     0
174
     0
 93
       13
 44
0.0
173
     0
291
     1
 45
0.0
  0
VISUALSTYLE
  5
38
102
{ACAD_REACTORS
330
2A
102
}
102
{ACAD_XDICTIONARY
360
12E
102
}
330
2A
100
AcDbVisualStyle
  2
Linepattern
 70
    14
 71
     2
 72
     2
 73
     0
 90
        0
 40
-0.6
 41
-30.0
 62
     5
 63
     7
421
 16777215
 74
     1
 91
        4
 64
     7
 65
   257
 75
     7
175
     7
 42
1.0
 92
        8
 66
     7
 43
1.0
 76
     1
 77
     6
 78
     2
 67
     7
 79
     5
170
     0
171
     0
290
     0
174
     0
 93
        1
 44
0.0
173
     0
291
     1
 45
0.0
  0
VISUALSTYLE
  5
33
102
{ACAD_REACTORS
330
2A
102
}
102
{ACAD_XDICTIONARY
360
124
102
}
330
2A
100
AcDbVisualStyle
  2
Realistic
 70
     8
 71
     2
 72
     2
 73
     0
 90
        0
 40
-0.6
 41
-30.0
 62
     5
 63
     7
421
 16777215
 74
     1
 91
        0
 64
     7
 65
   257
 75
     1
175
     1
 42
1.0
 92
        8
 66
     8
424
  7895160
 43
1.0
 76
     1
 77
     6
 78
     2
 67
     7
 79
     5
170
     0
171
     0
290
     0
174
     0
 93
       13
 44
0.0
173
     0
291
     0
 45
0.0
  0
VISUALSTYLE
  5
37
102
{ACAD_REACTORS
330
2A
102
}
102
{ACAD_XDICTIONARY
360
12C
102
}
330
2A
100
AcDbVisualStyle
  2
Thicken
 70
    13
 71
     2
 72
     2
 73
     0
 90
        0
 40
-0.6
 41
-30.0
 62
     5
 63
     7
421
 16777215
 74
     1
 91
        4
 64
     7
 65
   257
 75
     1
175
     1
 42
1.0
 92
       12
 66
     7
 43
1.0
 76
     1
 77
     6
 78
     2
 67
     7
 79
     5
170
     0
171
     0
290
     0
174
     0
 93
        1
 44
0.0
173
     0
291
     1
 45
0.0
  0
DICTIONARYVAR
  5
113
102
{ACAD_REACTORS
330
112
102
}
330
112
100
DictionaryVariables
280
     0
  1
1:1
  0
DICTIONARY
  5
11C
330
2F
100
AcDbDictionary
280
     1
281
     1
  3
ACAD_XREC_ROUNDTRIP
360
11D
  0
DICTIONARY
  5
120
330
31
100
AcDbDictionary
280
     1
281
     1
  3
ACAD_XREC_ROUNDTRIP
360
121
  0
DICTIONARY
  5
11E
330
30
100
AcDbDictionary
280
     1
281
     1
  3
ACAD_XREC_ROUNDTRIP
360
11F
  0
DICTIONARY
  5
122
330
32
100
AcDbDictionary
280
     1
281
     1
  3
ACAD_XREC_ROUNDTRIP
360
123
  0
DICTIONARY
  5
12A
330
36
100
AcDbDictionary
280
     1
281
     1
  3
ACAD_XREC_ROUNDTRIP
360
12B
  0
DICTIONARY
  5
132
330
3A
100
AcDbDictionary
280
     1
281
     1
  3
ACAD_XREC_ROUNDTRIP
360
133
  0
DICTIONARY
  5
126
330
34
100
AcDbDictionary
280
     1
281
     1
  3
ACAD_XREC_ROUNDTRIP
360
127
  0
DICTIONARY
  5
128
330
35
100
AcDbDictionary
280
     1
281
     1
  3
ACAD_XREC_ROUNDTRIP
360
129
  0
DICTIONARY
  5
130
330
39
100
AcDbDictionary
280
     1
281
     1
  3
ACAD_XREC_ROUNDTRIP
360
131
  0
DICTIONARY
  5
114
330
2B
100
AcDbDictionary
280
     1
281
     1
  3
ACAD_XREC_ROUNDTRIP
360
115
  0
DICTIONARY
  5
116
330
2C
100
AcDbDictionary
280
     1
281
     1
  3
ACAD_XREC_ROUNDTRIP
360
117
  0
DICTIONARY
  5
118
330
2D
100
AcDbDictionary
280
     1
281
     1
  3
ACAD_XREC_ROUNDTRIP
360
119
  0
DICTIONARY
  5
11A
330
2E
100
AcDbDictionary
280
     1
281
     1
  3
ACAD_XREC_ROUNDTRIP
360
11B
  0
DICTIONARY
  5
12E
330
38
100
AcDbDictionary
280
     1
281
     1
  3
ACAD_XREC_ROUNDTRIP
360
12F
  0
DICTIONARY
  5
124
330
33
100
AcDbDictionary
280
     1
281
     1
  3
ACAD_XREC_ROUNDTRIP
360
125
  0
DICTIONARY
  5
12C
330
37
100
AcDbDictionary
280
     1
281
     1
  3
ACAD_XREC_ROUNDTRIP
360
12D
  0
XRECORD
  5
11D
102
{ACAD_REACTORS
330
11C
102
}
330
11C
100
AcDbXrecord
280
     1
102
RTVSPropertyOp0
 70
     1
102
RTVSPropertyOp1
 70
     1
102
RTVSPropertyOp2
 70
     1
102
RTVSPropertyOp3
 70
     1
102
RTVSPropertyOp4
 70
     1
102
RTVSPropertyOp5
 70
     1
102
RTVSPropertyOp6
 70
     1
102
RTVSPropertyOp7
 70
     1
102
RTVSPropertyOp8
 70
     1
102
RTVSPropertyOp9
 70
     1
102
RTVSPropertyOp10
 70
     1
102
RTVSPropertyOp11
 70
     1
102
RTVSPropertyOp12
 70
     1
102
RTVSPropertyOp13
 70
     1
102
RTVSPropertyOp14
 70
     1
102
RTVSPropertyOp15
 70
     1
102
RTVSPropertyOp16
 70
     1
102
RTVSPropertyOp17
 70
     1
102
RTVSPropertyOp18
 70
     1
102
RTVSPropertyOp19
 70
     1
102
RTVSPropertyOp20
 70
     1
102
RTVSPropertyOp21
 70
     1
102
RTVSPropertyOp22
 70
     1
102
RTVSPropertyOp23
 70
     1
102
RTVSPropertyOp24
 70
     1
102
RTVSPropertyOp25
 70
     1
102
RTVSPropertyOp26
 70
     1
102
RTVSPropertyOp27
 70
     1
  0
XRECORD
  5
121
102
{ACAD_REACTORS
330
120
102
}
330
120
100
AcDbXrecord
280
     1
102
RTVSPropertyOp0
 70
     1
102
RTVSPropertyOp1
 70
     1
102
RTVSPropertyOp2
 70
     1
102
RTVSPropertyOp3
 70
     1
102
RTVSPropertyOp4
 70
     1
102
RTVSPropertyOp5
 70
     1
102
RTVSPropertyOp6
 70
     1
102
RTVSPropertyOp7
 70
     1
102
RTVSPropertyOp8
 70
     1
102
RTVSPropertyOp9
 70
     1
102
RTVSPropertyOp10
 70
     1
102
RTVSPropertyOp11
 70
     1
102
RTVSPropertyOp12
 70
     1
102
RTVSPropertyOp13
 70
     1
102
RTVSPropertyOp14
 70
     1
102
RTVSPropertyOp15
 70
     1
102
RTVSPropertyOp16
 70
     1
102
RTVSPropertyOp17
 70
     1
102
RTVSPropertyOp18
 70
     1
102
RTVSPropertyOp19
 70
     1
102
RTVSPropertyOp20
 70
     1
102
RTVSPropertyOp21
 70
     1
102
RTVSPropertyOp22
 70
     1
102
RTVSPropertyOp23
 70
     1
102
RTVSPropertyOp24
 70
     1
102
RTVSPropertyOp25
 70
     1
102
RTVSPropertyOp26
 70
     1
102
RTVSPropertyOp27
 70
     1
  0
XRECORD
  5
11F
102
{ACAD_REACTORS
330
11E
102
}
330
11E
100
AcDbXrecord
280
     1
102
RTVSPropertyOp0
 70
     1
102
RTVSPropertyOp1
 70
     1
102
RTVSPropertyOp2
 70
     1
102
RTVSPropertyOp3
 70
     1
102
RTVSPropertyOp4
 70
     1
102
RTVSPropertyOp5
 70
     1
102
RTVSPropertyOp6
 70
     1
102
RTVSPropertyOp7
 70
     1
102
RTVSPropertyOp8
 70
     1
102
RTVSPropertyOp9
 70
     1
102
RTVSPropertyOp10
 70
     1
102
RTVSPropertyOp11
 70
     1
102
RTVSPropertyOp12
 70
     1
102
RTVSPropertyOp13
 70
     1
102
RTVSPropertyOp14
 70
     1
102
RTVSPropertyOp15
 70
     1
102
RTVSPropertyOp16
 70
     1
102
RTVSPropertyOp17
 70
     1
102
RTVSPropertyOp18
 70
     1
102
RTVSPropertyOp19
 70
     1
102
RTVSPropertyOp20
 70
     1
102
RTVSPropertyOp21
 70
     1
102
RTVSPropertyOp22
 70
     1
102
RTVSPropertyOp23
 70
     1
102
RTVSPropertyOp24
 70
     1
102
RTVSPropertyOp25
 70
     1
102
RTVSPropertyOp26
 70
     1
102
RTVSPropertyOp27
 70
     1
  0
XRECORD
  5
123
102
{ACAD_REACTORS
330
122
102
}
330
122
100
AcDbXrecord
280
     1
102
RTVSPropertyOp0
 70
     1
102
RTVSPropertyOp1
 70
     1
102
RTVSPropertyOp2
 70
     1
102
RTVSPropertyOp3
 70
     1
102
RTVSPropertyOp4
 70
     1
102
RTVSPropertyOp5
 70
     1
102
RTVSPropertyOp6
 70
     1
102
RTVSPropertyOp7
 70
     1
102
RTVSPropertyOp8
 70
     1
102
RTVSPropertyOp9
 70
     1
102
RTVSPropertyOp10
 70
     1
102
RTVSPropertyOp11
 70
     1
102
RTVSPropertyOp12
 70
     1
102
RTVSPropertyOp13
 70
     1
102
RTVSPropertyOp14
 70
     1
102
RTVSPropertyOp15
 70
     1
102
RTVSPropertyOp16
 70
     1
102
RTVSPropertyOp17
 70
     1
102
RTVSPropertyOp18
 70
     1
102
RTVSPropertyOp19
 70
     1
102
RTVSPropertyOp20
 70
     1
102
RTVSPropertyOp21
 70
     1
102
RTVSPropertyOp22
 70
     1
102
RTVSPropertyOp23
 70
     1
102
RTVSPropertyOp24
 70
     1
102
RTVSPropertyOp25
 70
     1
102
RTVSPropertyOp26
 70
     1
102
RTVSPropertyOp27
 70
     1
  0
XRECORD
  5
12B
102
{ACAD_REACTORS
330
12A
102
}
330
12A
100
AcDbXrecord
280
     1
102
RTVSPropertyOp0
 70
     1
102
RTVSPropertyOp1
 70
     1
102
RTVSPropertyOp2
 70
     1
102
RTVSPropertyOp3
 70
     1
102
RTVSPropertyOp4
 70
     1
102
RTVSPropertyOp5
 70
     1
102
RTVSPropertyOp6
 70
     1
102
RTVSPropertyOp7
 70
     1
102
RTVSPropertyOp8
 70
     1
102
RTVSPropertyOp9
 70
     1
102
RTVSPropertyOp10
 70
     1
102
RTVSPropertyOp11
 70
     1
102
RTVSPropertyOp12
 70
     1
102
RTVSPropertyOp13
 70
     1
102
RTVSPropertyOp14
 70
     1
102
RTVSPropertyOp15
 70
     1
102
RTVSPropertyOp16
 70
     1
102
RTVSPropertyOp17
 70
     1
102
RTVSPropertyOp18
 70
     1
102
RTVSPropertyOp19
 70
     1
102
RTVSPropertyOp20
 70
     1
102
RTVSPropertyOp21
 70
     1
102
RTVSPropertyOp22
 70
     1
102
RTVSPropertyOp23
 70
     1
102
RTVSPropertyOp24
 70
     1
102
RTVSPropertyOp25
 70
     1
102
RTVSPropertyOp26
 70
     1
102
RTVSPropertyOp27
 70
     1
  0
XRECORD
  5
133
102
{ACAD_REACTORS
330
132
102
}
330
132
100
AcDbXrecord
280
     1
102
RTVSPropertyOp0
 70
     1
102
RTVSPropertyOp1
 70
     1
102
RTVSPropertyOp2
 70
     1
102
RTVSPropertyOp3
 70
     1
102
RTVSPropertyOp4
 70
     1
102
RTVSPropertyOp5
 70
     1
102
RTVSPropertyOp6
 70
     1
102
RTVSPropertyOp7
 70
     1
102
RTVSPropertyOp8
 70
     1
102
RTVSPropertyOp9
 70
     1
102
RTVSPropertyOp10
 70
     1
102
RTVSPropertyOp11
 70
     1
102
RTVSPropertyOp12
 70
     1
102
RTVSPropertyOp13
 70
     1
102
RTVSPropertyOp14
 70
     1
102
RTVSPropertyOp15
 70
     1
102
RTVSPropertyOp16
 70
     1
102
RTVSPropertyOp17
 70
     1
102
RTVSPropertyOp18
 70
     1
102
RTVSPropertyOp19
 70
     1
102
RTVSPropertyOp20
 70
     1
102
RTVSPropertyOp21
 70
     1
102
RTVSPropertyOp22
 70
     1
102
RTVSPropertyOp23
 70
     1
102
RTVSPropertyOp24
 70
     1
102
RTVSPropertyOp25
 70
     1
102
RTVSPropertyOp26
 70
     1
102
RTVSPropertyOp27
 70
     1
  0
XRECORD
  5
127
102
{ACAD_REACTORS
330
126
102
}
330
126
100
AcDbXrecord
280
     1
102
RTVSPropertyOp0
 70
     1
102
RTVSPropertyOp1
 70
     1
102
RTVSPropertyOp2
 70
     1
102
RTVSPropertyOp3
 70
     1
102
RTVSPropertyOp4
 70
     1
102
RTVSPropertyOp5
 70
     1
102
RTVSPropertyOp6
 70
     1
102
RTVSPropertyOp7
 70
     1
102
RTVSPropertyOp8
 70
     1
102
RTVSPropertyOp9
 70
     1
102
RTVSPropertyOp10
 70
     1
102
RTVSPropertyOp11
 70
     1
102
RTVSPropertyOp12
 70
     1
102
RTVSPropertyOp13
 70
     1
102
RTVSPropertyOp14
 70
     1
102
RTVSPropertyOp15
 70
     1
102
RTVSPropertyOp16
 70
     1
102
RTVSPropertyOp17
 70
     1
102
RTVSPropertyOp18
 70
     1
102
RTVSPropertyOp19
 70
     1
102
RTVSPropertyOp20
 70
     1
102
RTVSPropertyOp21
 70
     1
102
RTVSPropertyOp22
 70
     1
102
RTVSPropertyOp23
 70
     1
102
RTVSPropertyOp24
 70
     1
102
RTVSPropertyOp25
 70
     1
102
RTVSPropertyOp26
 70
     1
102
RTVSPropertyOp27
 70
     1
  0
XRECORD
  5
129
102
{ACAD_REACTORS
330
128
102
}
330
128
100
AcDbXrecord
280
     1
102
RTVSPropertyOp0
 70
     1
102
RTVSPropertyOp1
 70
     1
102
RTVSPropertyOp2
 70
     1
102
RTVSPropertyOp3
 70
     1
102
RTVSPropertyOp4
 70
     1
102
RTVSPropertyOp5
 70
     1
102
RTVSPropertyOp6
 70
     1
102
RTVSPropertyOp7
 70
     1
102
RTVSPropertyOp8
 70
     1
102
RTVSPropertyOp9
 70
     1
102
RTVSPropertyOp10
 70
     1
102
RTVSPropertyOp11
 70
     1
102
RTVSPropertyOp12
 70
     1
102
RTVSPropertyOp13
 70
     1
102
RTVSPropertyOp14
 70
     1
102
RTVSPropertyOp15
 70
     1
102
RTVSPropertyOp16
 70
     1
102
RTVSPropertyOp17
 70
     1
102
RTVSPropertyOp18
 70
     1
102
RTVSPropertyOp19
 70
     1
102
RTVSPropertyOp20
 70
     1
102
RTVSPropertyOp21
 70
     1
102
RTVSPropertyOp22
 70
     1
102
RTVSPropertyOp23
 70
     1
102
RTVSPropertyOp24
 70
     1
102
RTVSPropertyOp25
 70
     1
102
RTVSPropertyOp26
 70
     1
102
RTVSPropertyOp27
 70
     1
  0
XRECORD
  5
131
102
{ACAD_REACTORS
330
130
102
}
330
130
100
AcDbXrecord
280
     1
102
RTVSPropertyOp0
 70
     1
102
RTVSPropertyOp1
 70
     1
102
RTVSPropertyOp2
 70
     1
102
RTVSPropertyOp3
 70
     1
102
RTVSPropertyOp4
 70
     1
102
RTVSPropertyOp5
 70
     1
102
RTVSPropertyOp6
 70
     1
102
RTVSPropertyOp7
 70
     1
102
RTVSPropertyOp8
 70
     1
102
RTVSPropertyOp9
 70
     1
102
RTVSPropertyOp10
 70
     1
102
RTVSPropertyOp11
 70
     1
102
RTVSPropertyOp12
 70
     1
102
RTVSPropertyOp13
 70
     1
102
RTVSPropertyOp14
 70
     1
102
RTVSPropertyOp15
 70
     1
102
RTVSPropertyOp16
 70
     1
102
RTVSPropertyOp17
 70
     1
102
RTVSPropertyOp18
 70
     1
102
RTVSPropertyOp19
 70
     1
102
RTVSPropertyOp20
 70
     1
102
RTVSPropertyOp21
 70
     1
102
RTVSPropertyOp22
 70
     1
102
RTVSPropertyOp23
 70
     1
102
RTVSPropertyOp24
 70
     1
102
RTVSPropertyOp25
 70
     1
102
RTVSPropertyOp26
 70
     1
102
RTVSPropertyOp27
 70
     1
  0
XRECORD
  5
115
102
{ACAD_REACTORS
330
114
102
}
330
114
100
AcDbXrecord
280
     1
102
RTVSPropertyOp0
 70
     1
102
RTVSPropertyOp1
 70
     1
102
RTVSPropertyOp2
 70
     1
102
RTVSPropertyOp3
 70
     1
102
RTVSPropertyOp4
 70
     1
102
RTVSPropertyOp5
 70
     1
102
RTVSPropertyOp6
 70
     1
102
RTVSPropertyOp7
 70
     1
102
RTVSPropertyOp8
 70
     1
102
RTVSPropertyOp9
 70
     1
102
RTVSPropertyOp10
 70
     1
102
RTVSPropertyOp11
 70
     1
102
RTVSPropertyOp12
 70
     1
102
RTVSPropertyOp13
 70
     1
102
RTVSPropertyOp14
 70
     1
102
RTVSPropertyOp15
 70
     1
102
RTVSPropertyOp16
 70
     1
102
RTVSPropertyOp17
 70
     1
102
RTVSPropertyOp18
 70
     1
102
RTVSPropertyOp19
 70
     1
102
RTVSPropertyOp20
 70
     1
102
RTVSPropertyOp21
 70
     1
102
RTVSPropertyOp22
 70
     1
102
RTVSPropertyOp23
 70
     1
102
RTVSPropertyOp24
 70
     1
102
RTVSPropertyOp25
 70
     1
102
RTVSPropertyOp26
 70
     1
102
RTVSPropertyOp27
 70
     1
  0
XRECORD
  5
117
102
{ACAD_REACTORS
330
116
102
}
330
116
100
AcDbXrecord
280
     1
102
RTVSPropertyOp0
 70
     1
102
RTVSPropertyOp1
 70
     1
102
RTVSPropertyOp2
 70
     1
102
RTVSPropertyOp3
 70
     1
102
RTVSPropertyOp4
 70
     1
102
RTVSPropertyOp5
 70
     1
102
RTVSPropertyOp6
 70
     1
102
RTVSPropertyOp7
 70
     1
102
RTVSPropertyOp8
 70
     1
102
RTVSPropertyOp9
 70
     1
102
RTVSPropertyOp10
 70
     1
102
RTVSPropertyOp11
 70
     1
102
RTVSPropertyOp12
 70
     1
102
RTVSPropertyOp13
 70
     1
102
RTVSPropertyOp14
 70
     1
102
RTVSPropertyOp15
 70
     1
102
RTVSPropertyOp16
 70
     1
102
RTVSPropertyOp17
 70
     1
102
RTVSPropertyOp18
 70
     1
102
RTVSPropertyOp19
 70
     1
102
RTVSPropertyOp20
 70
     1
102
RTVSPropertyOp21
 70
     1
102
RTVSPropertyOp22
 70
     1
102
RTVSPropertyOp23
 70
     1
102
RTVSPropertyOp24
 70
     1
102
RTVSPropertyOp25
 70
     1
102
RTVSPropertyOp26
 70
     1
102
RTVSPropertyOp27
 70
     1
  0
XRECORD
  5
119
102
{ACAD_REACTORS
330
118
102
}
330
118
100
AcDbXrecord
280
     1
102
RTVSPropertyOp0
 70
     1
102
RTVSPropertyOp1
 70
     1
102
RTVSPropertyOp2
 70
     1
102
RTVSPropertyOp3
 70
     1
102
RTVSPropertyOp4
 70
     1
102
RTVSPropertyOp5
 70
     1
102
RTVSPropertyOp6
 70
     1
102
RTVSPropertyOp7
 70
     1
102
RTVSPropertyOp8
 70
     1
102
RTVSPropertyOp9
 70
     1
102
RTVSPropertyOp10
 70
     1
102
RTVSPropertyOp11
 70
     1
102
RTVSPropertyOp12
 70
     1
102
RTVSPropertyOp13
 70
     1
102
RTVSPropertyOp14
 70
     1
102
RTVSPropertyOp15
 70
     1
102
RTVSPropertyOp16
 70
     1
102
RTVSPropertyOp17
 70
     1
102
RTVSPropertyOp18
 70
     1
102
RTVSPropertyOp19
 70
     1
102
RTVSPropertyOp20
 70
     1
102
RTVSPropertyOp21
 70
     1
102
RTVSPropertyOp22
 70
     1
102
RTVSPropertyOp23
 70
     1
102
RTVSPropertyOp24
 70
     1
102
RTVSPropertyOp25
 70
     1
102
RTVSPropertyOp26
 70
     1
102
RTVSPropertyOp27
 70
     1
  0
XRECORD
  5
11B
102
{ACAD_REACTORS
330
11A
102
}
330
11A
100
AcDbXrecord
280
     1
102
RTVSPropertyOp0
 70
     1
102
RTVSPropertyOp1
 70
     1
102
RTVSPropertyOp2
 70
     1
102
RTVSPropertyOp3
 70
     1
102
RTVSPropertyOp4
 70
     1
102
RTVSPropertyOp5
 70
     1
102
RTVSPropertyOp6
 70
     1
102
RTVSPropertyOp7
 70
     1
102
RTVSPropertyOp8
 70
     1
102
RTVSPropertyOp9
 70
     1
102
RTVSPropertyOp10
 70
     1
102
RTVSPropertyOp11
 70
     1
102
RTVSPropertyOp12
 70
     1
102
RTVSPropertyOp13
 70
     1
102
RTVSPropertyOp14
 70
     1
102
RTVSPropertyOp15
 70
     1
102
RTVSPropertyOp16
 70
     1
102
RTVSPropertyOp17
 70
     1
102
RTVSPropertyOp18
 70
     1
102
RTVSPropertyOp19
 70
     1
102
RTVSPropertyOp20
 70
     1
102
RTVSPropertyOp21
 70
     1
102
RTVSPropertyOp22
 70
     1
102
RTVSPropertyOp23
 70
     1
102
RTVSPropertyOp24
 70
     1
102
RTVSPropertyOp25
 70
     1
102
RTVSPropertyOp26
 70
     1
102
RTVSPropertyOp27
 70
     1
  0
XRECORD
  5
12F
102
{ACAD_REACTORS
330
12E
102
}
330
12E
100
AcDbXrecord
280
     1
102
RTVSPropertyOp0
 70
     1
102
RTVSPropertyOp1
 70
     1
102
RTVSPropertyOp2
 70
     1
102
RTVSPropertyOp3
 70
     1
102
RTVSPropertyOp4
 70
     1
102
RTVSPropertyOp5
 70
     1
102
RTVSPropertyOp6
 70
     1
102
RTVSPropertyOp7
 70
     1
102
RTVSPropertyOp8
 70
     1
102
RTVSPropertyOp9
 70
     1
102
RTVSPropertyOp10
 70
     1
102
RTVSPropertyOp11
 70
     1
102
RTVSPropertyOp12
 70
     1
102
RTVSPropertyOp13
 70
     1
102
RTVSPropertyOp14
 70
     1
102
RTVSPropertyOp15
 70
     1
102
RTVSPropertyOp16
 70
     1
102
RTVSPropertyOp17
 70
     1
102
RTVSPropertyOp18
 70
     1
102
RTVSPropertyOp19
 70
     1
102
RTVSPropertyOp20
 70
     1
102
RTVSPropertyOp21
 70
     1
102
RTVSPropertyOp22
 70
     1
102
RTVSPropertyOp23
 70
     1
102
RTVSPropertyOp24
 70
     1
102
RTVSPropertyOp25
 70
     1
102
RTVSPropertyOp26
 70
     1
102
RTVSPropertyOp27
 70
     1
  0
XRECORD
  5
125
102
{ACAD_REACTORS
330
124
102
}
330
124
100
AcDbXrecord
280
     1
102
RTVSPropertyOp0
 70
     1
102
RTVSPropertyOp1
 70
     1
102
RTVSPropertyOp2
 70
     1
102
RTVSPropertyOp3
 70
     1
102
RTVSPropertyOp4
 70
     1
102
RTVSPropertyOp5
 70
     1
102
RTVSPropertyOp6
 70
     1
102
RTVSPropertyOp7
 70
     1
102
RTVSPropertyOp8
 70
     1
102
RTVSPropertyOp9
 70
     1
102
RTVSPropertyOp10
 70
     1
102
RTVSPropertyOp11
 70
     1
102
RTVSPropertyOp12
 70
     1
102
RTVSPropertyOp13
 70
     1
102
RTVSPropertyOp14
 70
     1
102
RTVSPropertyOp15
 70
     1
102
RTVSPropertyOp16
 70
     1
102
RTVSPropertyOp17
 70
     1
102
RTVSPropertyOp18
 70
     1
102
RTVSPropertyOp19
 70
     1
102
RTVSPropertyOp20
 70
     1
102
RTVSPropertyOp21
 70
     1
102
RTVSPropertyOp22
 70
     1
102
RTVSPropertyOp23
 70
     1
102
RTVSPropertyOp24
 70
     1
102
RTVSPropertyOp25
 70
     1
102
RTVSPropertyOp26
 70
     1
102
RTVSPropertyOp27
 70
     1
  0
XRECORD
  5
12D
102
{ACAD_REACTORS
330
12C
102
}
330
12C
100
AcDbXrecord
280
     1
102
RTVSPropertyOp0
 70
     1
102
RTVSPropertyOp1
 70
     1
102
RTVSPropertyOp2
 70
     1
102
RTVSPropertyOp3
 70
     1
102
RTVSPropertyOp4
 70
     1
102
RTVSPropertyOp5
 70
     1
102
RTVSPropertyOp6
 70
     1
102
RTVSPropertyOp7
 70
     1
102
RTVSPropertyOp8
 70
     1
102
RTVSPropertyOp9
 70
     1
102
RTVSPropertyOp10
 70
     1
102
RTVSPropertyOp11
 70
     1
102
RTVSPropertyOp12
 70
     1
102
RTVSPropertyOp13
 70
     1
102
RTVSPropertyOp14
 70
     1
102
RTVSPropertyOp15
 70
     1
102
RTVSPropertyOp16
 70
     1
102
RTVSPropertyOp17
 70
     1
102
RTVSPropertyOp18
 70
     1
102
RTVSPropertyOp19
 70
     1
102
RTVSPropertyOp20
 70
     1
102
RTVSPropertyOp21
 70
     1
102
RTVSPropertyOp22
 70
     1
102
RTVSPropertyOp23
 70
     1
102
RTVSPropertyOp24
 70
     1
102
RTVSPropertyOp25
 70
     1
102
RTVSPropertyOp26
 70
     1
102
RTVSPropertyOp27
 70
     1
  0
ENDSEC
  0
SECTION
  2
THUMBNAILIMAGE
 90
    16364
310
28000000B40000005500000001000800000000000000000000000000000000000000000000000000FFFFFF00FF000000FFFF000000FF000000FFFF000000FF00FF00FF000000000080808000C0C0C000FF000000FF7F7F00A5000000A55252007F0000007F3F3F004C0000004C2626002600000026131300FF3F0000FF9F7F
310
00A5290000A56752007F1F00007F4F3F004C1300004C2F26002609000026171300FF7F0000FFBF7F00A5520000A57C52007F3F00007F5F3F004C2600004C39260026130000261C1300FFBF0000FFDF7F00A57C0000A59152007F5F00007F6F3F004C3900004C422600261C000026211300FFFF0000FFFF7F00A5A50000A5A5
310
52007F7F00007F7F3F004C4C00004C4C26002626000026261300BFFF0000DFFF7F007CA5000091A552005F7F00006F7F3F00394C0000424C26001C260000212613007FFF0000BFFF7F0052A500007CA552003F7F00005F7F3F00264C0000394C2600132600001C2613003FFF00009FFF7F0029A5000067A552001F7F00004F
310
7F3F00134C00002F4C2600092600001726130000FF00007FFF7F0000A5000052A55200007F00003F7F3F00004C0000264C2600002600001326130000FF3F007FFF9F0000A5290052A56700007F1F003F7F4F00004C1300264C2F00002609001326170000FF7F007FFFBF0000A5520052A57C00007F3F003F7F5F00004C2600
310
264C39000026130013261C0000FFBF007FFFDF0000A57C0052A59100007F5F003F7F6F00004C3900264C420000261C001326210000FFFF007FFFFF0000A5A50052A5A500007F7F003F7F7F00004C4C00264C4C00002626001326260000BFFF007FDFFF00007CA5005291A500005F7F003F6F7F0000394C0026424C00001C26
310
0013212600007FFF007FBFFF000052A500527CA500003F7F003F5F7F0000264C0026394C0000132600131C2600003FFF007F9FFF000029A5005267A500001F7F003F4F7F0000134C00262F4C0000092600131726000000FF007F7FFF000000A5005252A50000007F003F3F7F0000004C0026264C0000002600131326003F00
310
FF009F7FFF002900A5006752A5001F007F004F3F7F0013004C002F264C0009002600171326007F00FF00BF7FFF005200A5007C52A5003F007F005F3F7F0026004C0039264C00130026001C132600BF00FF00DF7FFF007C00A5009152A5005F007F006F3F7F0039004C0042264C001C00260021132600FF00FF00FF7FFF00A5
310
00A500A552A5007F007F007F3F7F004C004C004C264C002600260026132600FF00BF00FF7FDF00A5007C00A55291007F005F007F3F6F004C0039004C26420026001C0026132100FF007F00FF7FBF00A5005200A5527C007F003F007F3F5F004C0026004C2639002600130026131C00FF003F00FF7F9F00A5002900A5526700
310
7F001F007F3F4F004C0013004C262F002600090026131700000000002D2D2D005B5B5B0089898900B7B7B700B3B3B30000000000000000000000000000000000000000000000000000000000010100000000000000000000000000000000000000000000000000000000000000000000000000000000000000000000000000
310
000000000000000000000000000000000000000000000000000000000000000000000000000000000000000000000000000000000000000000000000000000000000000000000000000000000000FE000000000000000000000000000000000000000000000000000000000000000000000000000000000000010101010101
310
01010101010101010101000000000000000000000000000000000000000000000000000000000000000000000000000000000000000000000000000000000000000000000000000000000000000000000000000000000000000000000000000000000000000000000000000000000000000000000000000000000000000000
310
00000000FE0000000000000000000000000000000000000000000000000000000000000000000000000000000000010100000100000100000101010100010101010101010100000000000000000000000000000000000000000000000000000000000000000000000000000000000000000000000000000000000000000000
310
000000000000000000000000000000000000000000000000000000000000000000000000000000000000000000000000000000000000000000FE000000000000000000000000000000000000000000000000000000000000000000000000000001010100000001010001010000010101010000000000010101010101010101
310
0101010100000000000000000000000000010101010101000000000000000000000000000000000000000000000000000000000000000000000000000000000000000000000000000000000000000000000000000000000000000000000000000000000000000000000000000000FE00000000000000000000000000000000
310
00000000000000000000000000000000000000000001010000010100000000000101000000000000000000000000000000000000000000000001010101010101010101010101010000000001010101010101010101010101010100000000000000000000000000000000000000000000000000000000000000000000000000
310
000000000000000000000000000000000000000000000000000000000000000000000000FE000000000000000000000000000000000000000000000000000000000000000000000000000100000001010000000000010100000000000000000000000000000000000000000000000000000000000000010101010100010100
310
0100000101010101010101010100010101000000000000000000000000000000000000000000000000000000000000000000000000000000000000000000000000000000000000000000000000000000000000000000000000FE00000000000000000000000000000000000000000000000000000000000000000000000101
310
00000000010101010000000101000000000000000000000000000000000000000000000000000000000000000101010101000000000000000000000000000000010100010101010000000000000000000000000000000000000000000000000000000000000000000000000000000000000000000000000000000000000000
310
000000000000000000000000000000FE000000000000000000000000000000000000000000000000000000000000000000000101000000010000000001010000010100000000000000000000000000000000000000000000000000000000000000000000000000000000000000000000000000000000000000000000010101
310
0101010100000000000000000000000000000000000000000000000000000000000000000000000000000000000000000000000000000000000000000000000000000000FE00000000000000000000000000000000000000000000000000000000000000000001000000000100000000000001000001010001010100000000
310
00000000000000000000000000000000000000000000000000000000000000000000000000000000000000000000000000000000000001010001010101000000000000000000000000000000000000000000000000000000000000000000000000000000000000000000000000000000000000000000000000FE0000000000
310
00000000000000000000000000000000000000000000000000000001000000010100000000000001010000000001000000010101010101010000000000000000000000000000000000000000000000000000000000000000000000000000000000000000000000000000000101010100000001000000000000000000000000
310
0000000000000000000000000000000000000000000001000000000000000000000000000000000000000000000000FE00000000000001010101010101010000000000000000000000000000000000010000000101000000000000000100000000010000000000000000000101000000000000000000000000000000000000
310
00000000000000000000000000000000000000000000000000000000000000000000000001000000000100000000000000000000000000000000000000000000000000000000010101010100010101010100000000000000000000000000000000000000FE0000000100000000000000000000010100000000000000000000
310
00000000000100000101000000000000000001000000000100000000010101010100000000000000000000000000000000000000000000000000000000000000000000000000000000000000000000000000000000000000000000000000010000000000000000000000000000000000000000000000000001010100000000
310
0000000000000001010000000000000000000000000000000000FE00010000000000000000000000000000010100000000000000000000000001000001010000000000000000000100000001000000010101000000000000000000000000000000000000000000000000000000000000000000000000000000000000000000
310
00000000000000000000000000000000000001010100000000000000000000000000000000000000000000000101000000000000000000000000000000000101010000000000000000000000000000010100000000000000000000000000000000000101010000000000000000010000010100000000000000000001010000
310
00010001010101000000000000000000000000000000000000000000000000000001010101010100000000000000000000000000000000000000000000000000000000000000000100010000000000000000000000000000000000000000000000010000000000000000000000000000000000000001000000000000000000
310
00000000000101000000000000000000000000000000000000010100000000000000010100000100000000000000000000010000000001010100000000000000000000000000000101010101010101010101010101010000000000000101010101010100000000000000000000000000000000000000000000000000000001
310
00000000000000000000000000000000000000000000000100000000000000000000000000000000000000010000000000000000000000000000010100000000000000000000000000000000000001010000000000000001010001000000000000000000000001000000000000000000000000000000000101010101000000
310
00000000000000000000000000000000000000000000000000010101010101010000000000000000000000000000000000000000010000000000000000000000000000000000000000000000010100000000000000000000000000000000000001000000000000000000000000000001010000000000000000000000000000
310
00000000010100000000000001010000010000000000000000000000010000000000000000000000010101010100000000000000000000000000000000000000000000000000000000000000000000000000000000010101010101000000000000000000000000000001000000000000000000000000000000000000000000
310
00010100000101010101000000000001010101010000010100000000000000000000000000010000000000000000000000000000000000000000010000000000000100000100000000000000000000000001000000000000000000010100000000000000000000000000000000000000000000000000000000000000000000
310
00000000000000000000000000000000000101010101010100000000000000010000000000000000000000000000000000000000000001010000010100000100000000000101000001000000010000000000000000000000000001000000000000000000000000000000000000000001000000000001010101010000000000
310
00000000000000010000010100000001010000000000000000000000000000000000000000000000000000000000000000000000000000000000000000000000000000000000000000000000010100000000000001000000000000000000000000000000000000000000000101000001010000010000000000010100000100
310
00000100000000000000000000000000010100000000000000000000000000000000000001010000000000010101010100000000000000000000000001010001010001010000000000000000000000000000000000000000000000000000000000000000000000000000000000000000000000000000000000000000000000
310
00000001000000000000010000000000000000000000000000000000000000000001010100010100000100000000000101000001000001010000000000000000000000000001010000000000000000000000000000000000000101000000000001010000010000000000000000000000000101000101000100000000000000
310
00000000000000000000000000000000000000000000000000000000000000000000000000000000000000000000000000000000000000000100000000000101000000000000000000000000000000000000000000000001000001010000010000000000010100000100000100000000000000000000000000000101000000
310
00000000000000000000000000000001010000000001010001010100000000000000000000000001000001010001000000000000000000000000000000000000000000000000000000000000000000000000000000000000000000000000000000000000000000000000000000010000000000010100000000000000000000
310
00000000000000000000000000010000010100000100000000000101000001000001000000000000000000000000000001010000000000000000000000000000000000000101000000000101000101010000000000000000000000000101000000010100000000000000000000000000000000000000000000000000000000
310
00000000000000000000000000000000000000000000000000000000000000000000010000000000000100000000000000000000000000000000000000000000000001000001010000010000000000010100000100000100000000000000000000000000000101000000000000000000000000000000000000010100000000
310
01000000000100000000000000000000000001010000000101000000000000000000000000000000000000000000000000000000000000000000000000000000000000000000000000000000000000000000000000000100000000000000010000000000000000000000000000000000000000000000000100000101000001
310
00000000000101000001000001000000000000000000000000000001010000000000000000000000000000000000000101000000000100000000000101010101010101010101010000000000010000000000000000000000000000000000000000000000000000000000000000000000000000000000000000000000000000
310
00000000000101010101010100000000000000010100000000000000000000000000000000000000000000000001000001010101010000000000010101010100000100000000000000000000000000000101000000000000000000000000000000000000010100000000010000000000000000000000010101010100000000
310
00000100000000000000000000000000000000000000000000000000000000000000000000010101010101010101010101010101010101010101010000000000000000000000000101000000000000000000000000000000000000000000000000000100000000000000000000000000000000000000010000000000000000
310
00000000000001010000000000000000000000000000000000000101000000000101000000000000000000000001000000000000000000010000000000000000000000000000000000000000000000000000000000000000000001000000000000000000000000000000000000000000000000000000000000000000010000
310
00000000000000000000000000000000000000000000000001000000000000000000000000000000000000000100000000000000000000000000000101000000000000000000000000000000000000010100000000010101000000000000000000000101010000000000000001000000000000000000000000000000000000
310
00000000000000000000000000000000010000010100000000000000000000000000000000000000000000000000000000010000000000000000000000000000000000000000000000000000000100000000000000000000000000000000000000010000000000000000000000000000010100000000000000000000000000
310
00000000000101000000010000000000000000000000000000000000000000000000010000000000000000000000000000000000000000000000000000000000000000010000000000000000000000000000000000000000000000000000000000000000000001000000000000000000000000000000000000000000000000
310
00000001000000000000000000000000000000000000000100000000000000000000000000000101000000000000000000000000000000000000010100000001000000000000000000000000000000000000000000000001000000000000000000000000000000000000000000000000000000000000000100000000000000
310
00000000000000000000000000000000000000000000000000000001000000000000000000000000000000000000000000000000000000000100000000000000000000000000000000000000010000000000000000000000000000010100000000000000000000000000000000000001010000000100000000000000000000
310
00000000000000010000000100000100000000000000000000000000000000000000000000000000000000000100000000000000000000000000000000000000000000000000000000000000000101010000000000000000000000000000000000000000000000000000000000010000010101010100000000000101010101
310
00000100000000000000000000000000000101000000000000000000000000000000000000010100000001000000000000000000000000000000000101000000010100010100000000000000000000000000000000000000000000000000000001000000000000000000000000000000000000000000000000000000000000
310
00000001010000000000000000000000000000000000000000000000000000000000000100000101000001000000000001010000010000010000000000000000000000000000010000000000000000000000000000000000000000010000000100000000000000000000000000000000000000000000000000010000000000
310
00000000000000000000000000000000000000000001000000000000000000000000000000000000000000000000000000000000000000000001000000000000000000000000000000000000000000000000000000000000010000010100000100000000000101000001000001000000000000000000000000000001000000
310
00000000000000000000000000000000000100000001000000000000000000000000000000000000000000000000000001010100000000000000000000000000000000000000000000010000000000000000000000000000000000000000000000000000000000000000000000010000000000000000000000000000000000
310
00000000000000000000000000000100000101000001000000000001010000010000010000000000000000000000000000010100000000000000000000000000000000000001010000000100000000000000000000000000000000000000000000000000000000000101010000000000000000000000000000000001010100
310
00010000000000000000000100000000000000000000000000000000000001000000000100000000000000000000000000000000000000000000000000000000000000010000010100000100000000000101000001000001000000000000000000000000000001010000000000000000000000000000000000000101000000
310
01000000000000000000000000000000000000000000000000000000000000000001010101010101010101010101010101000000000001010000000000000001010000000000000000000000000000010100000101000001010000000000000000000000000000000000000000000000000000000000000001000001010000
310
01000000000001010000010000010000000000000000000000000000010100000000000000000000000000000000000001010000000100000100000000000000000000010000000100000001000000000000000000000000000000000000000000000000000000000000000000000000000000000000000000010101010101
310
01010101010101000000000101000000000000000000000000000000000000000000000000000000000000000000010000010100000100000000000101000001000001000000000000000000000000000001010101010101010101010101010101010101010101000000010001010000000000000000000001010001010000
310
00010100000000000000000000000000000000000000000000000000000000000000000000000000000000000101000000000000000000000101000000000001000000000000000000000000000000000000000000000000000000000000000000000001000001010000010000000000010100000100000100000000000000
310
00000000000000FE0000000000000000000000000000000000000000000000000100000100000000000000000000010000000000000000000000000000000000000000000000000000000000000000000000000000000000000000000000000101000000000000000000000001000000000000010000000000000000000000
310
000000000000000000000000000000000000000000000000000100000101010101000000000001010101010000010000000000000000000000000000FE000000000000000000000000000000000000000000000000010001010001010101000000000101010000000001010101010000000000000000000000000000000000
310
0000000000000000000000000000000000000001010000000000000000000000010100000000000001000000000000000000000000000000000000000000000000000000000000000000000000000100000000000000000000000000000000000000010000000000000000000000000000FE00000000000000000000000000
310
00000000000000000000000001010100010101010000000000010100000000010101010100000001010101010101010101010101010101010101010000000000000000000000010100000000000000000000000001000000000000000100000000000000000000000000000000000000000000000000000000000000000000
310
000000000100000000000000000000000000000000000000010000000000000000000000000000FE000000000000000000000000000000000000000000000000000001000000000101000000000000000000000000000000000101000100000000000000000000000000000000000001010100000000000000000101000000
310
0000000000000000000100000000000000010000000000000000000000000000000000000000000000000000000000000000000000000000000100000000000000000000000000000000000000010000000000000000000000000000FE00000000000000000000000000000000000000000000000000000101000000010001
310
01010101010101010101000000000001010101000000000000000000000000000000000000010101000000000000000100000000000000000000000000010000000000000001000000000000000000000000000000000000000000000000000000000000000000000000000000000100000000000000000000000000000000
310
000000010000000000000000000000000000FE000000000000000000000000000000000000000000000000000000010100000001000000000000000000000100000000000000010000000000000000000000000000000000000001000000000000000001000000000000000000000000010000000000000000010000000000
310
0000000000000000000000000000000000000000000000000000000000000000000000000100000000000000000000000000000000000000010000000000000000000000000000FE00000000000000000000000000000000000000000000000000000000010100000001000000000000000000010000000000000001000000
310
00000000000000000000000000000000010000000000000001000000000000000000000001000000000000000000010000000000000000000000000000000000000000000000000000000000000000000000000000000000000100000101010101000000000001010101010000010000000000000000000000000000FE0000
310
00000000000000000000000000000000000000000000000000000001010000000100000000000000000101000000000000010000000000000000000000000000000000000001000000000000010000000000000000000001000000000000000000000100000000000000000000000000000000000000000000000000000000
310
00000000000000000000000000000001000001010000010000000000010100000100000100000000000000000000000000000101010101010101010101010101010101010101010100000000000000000001010000000100000000000000000100000000000001000000000000000000000000000000000000000100000000
310
00010000000000000000000100000000000000000000000100000000000000000000000000000000000000000000000000000000000000000000000000000000000000010101000101000001000000000001010000010000010100000000000000000000000000010100000000000000000000000000000000000001010000
310
00000000000000000101000000010000000000000001010000000000010000000000000000000000000000000000000001010100000100000000000000000001000000000000000000000101000000000000000000000000000000000000000000000000000000000000000000000000000000000000000001010000010100
310
00010000000000010100000100000001000000000000000000000000000101000000000101010101010101010100000000010100000000000000000000000101000000010100000000000101000000000001000000000000000000000000000000000000000101010000010000000000010101000000000000000000000000
310
01010000000000000000000000000000000000000000000000000000000000000000000000000000000000000000010100000101000001000000000001010000010000000100000000000000000000000000010101010000010000000000000000010000010101010000000000000000000000000101000000000101000000
310
00010100000000010000000000000000000000000000000000000001010100010000000101010000000000000000000000000101010000000000000000000000000000000000000000000000000000000000000000000000000000000000000000000001010000010100000100000000000101000001000001010000000000
310
00000000000000000101010001000001010000000001010001000001010100000000000000000000000000010100000000000101000001010000000001000000000000000000000000000000000000000101010001010101000000000000000000000000000101000000000000000000000000000000000000000000000000
310
00000000000000000000000000000000000000000000000000010101000101000001000000000001010000010000010100000000000000000000000000010101000001010001010101010001000000000101010000000000000000000000000000010100000000000001010001010000000100000000000000000000000000
310
00000000000001000000000100000000000000000000000000010100000000000000000000000000000000000000000000000000000000000000000000000000000000000000000000000000000000010000010100000100000000000101000001000001000000000000000000000000000001000100000000010101010100
310
01000000000001000100000000000000000000000000000001010000000000000001010100000001000000000000000000000000000000000000000100000000000000000000000000000000010100000000000000000000000000000000000000000000000000000000000000000000000000000000000000000000000000
310
00000000000100000101010101000000000001010101010000010000000000000000000000000000010001000000000001000000000100000000000100010000000000000000000000000000000000010100000000000000000000000100000000000000000000000000000000000000010000000000000000000000000000
310
01010000000000000000000000000000000000000000000000000000000000000000000000000000000000000000000000000000000000000000010000000000000000000000000000000000000001000000000000000000000000000001000100000001000000010100000100000000010001000000000000000000000000
310
00000000000001010100000000000000000001000000000000000000000000000000000000000100000000000000000000000001010000000000000000000000000000000000000000000000000000000000000000000000000000000000000000000000000000000000000000000001000000000000000000000000000000
310
00000000010000000000000000000000000000010101000001000001000000010000010000000101010000000000000000000000000000000000000000010101010000000000000101000000000000000000000000000000000000010000000000000000000001010000000000000000000000000000000000000000000000
310
00000000000000000000000000000000000000000000000000000000000000000000000000010000000000000000000000000000000000000001000000000000000000000000000001010100010000010000000000010000010000010101000000000000000000000000000000000000000000000001010100000101000100
310
00000000000000000000000000000000000101010000000101010101000000000000000000000000000000000000000000000000000000000000000000000000000000000000000000000000000000000000000000000000000001000000000000000000000000000000000000000100000000000000000000000000000101
310
01010000010000000000000001010001010101010000000000000000000000000000000000000000000000000000010101010101000000000000000000000000000000000000010101010101010000000000000000000000000000000000000000000000000000000000000000000000000000000000000000000000000000
310
00000000010100000000000000000000010000000000000000000000000000000000000001000000000000000000000000000001010000000001010101010101010101000000000101000000000000000000000000000000000000000000000000000000000000000000000000000000000000000000000000000000000000
310
00000000000000000000000000000000000000000000000000000000000000000000000000000000000001010101010101010101010101010101010000000000000000000001000001010101010000000000010101010100000100000000000000000000000000000101010101010101010101010101010101010101010100
310
00000000000000000000000000000000000000000000000000000000000000000000000000000000000000000000000000000000000000000000000000000000000000000000000000000000000000000000000000000000000000000000010000000000000000000000000000000101000000000000000000000100000101
310
00000100000000000101000001000001000000000000000000000000000001010101010101010101010101010101010101010101000000000000000000000000000000000000000000000000000000000000000000000000000000000000000000000000000000000000000000000000000000000000000000000000000000
310
0000000000000000000000000000000000000001000101010101010101010101010101010101000000000000000000000100000101000001000000000001010000010000010000000000000000000000000000FE00000000000000000000000000000000000000000000000000000000000000000000000000000000000000
310
00000000000000000000000000000000000000000000000000000000000000000000000000000000000000000000000000000000000000000000000000000000000000000000000001010101010101010101010101010101010101000000000000000000000100000101000001000000000001010000010000010000000000
310
00000000000000000001010101010101010101010101010101010101010101000000000000000000000000000000000000000000000000000000000000000000000000000000000000000000000000000000000000000000000000000000000000000000000000000000000000000000000000000000000000000000000001
310
00000000000000000000000000000000010000000000000000000001000001010000010000000000010100000100000100000000000000000000000000000101000000000000000000000000000000000000010100000000000000000000000000000000000000000000000000000000000000000000000000000000000000
310
00000000000000000000000000000000000000000000000000000000000000000000000000000000000000000000000000000000000101010101010101010101010101010101000000000000000000000100000101000001000000000001010000010000010000000000000000000000000000010100000101010101010101
310
01010101010100000101000000000000000000000000000000000000000000000000000000000000000000000000000000000000000000000000000000000000000000000000000000000000000000000000000000000000000000000000000000000000000000000000000000000000000000000000000000010100000000
310
00000000000001000001010000010000000000010100000100000100000000000000000000000000000101000001000000000000000000000000010000010100000000000000000000000000000000000000000000000000000000000000000000000000000000000000000000000000000000000000000000000000000000
310
00000000000000000000000000000000000000000000000000000000000000000000000000000000000000000000000000000000000000000000000100000101000001000000000001010000010000010000000000000000000000000000010001010001000000000000000000010000010100010000000000000000000000
310
00000000000000000000000000000000000000000000000000000000000000000000000000000000000000000000000000000000000000000000000000000000000000000000000000000000000000000000000000000000000000000000000000000000000000000000000000000000010000000101010100000000000001
310
01010100000100000000000000000000000000000100010101000100000000000000010001010001000100000000000000000000000000000000000000000000000000000000000000000000000000000000000000000000000000000000000000000000000000000000000000000000000000000000000000000000000000
310
00000000000000000000000000000000000000000000000000000000000000000000000000000100000000000000000000000000000000000000010000000000000000000000000000010101000101000100000000000100010100000101010000000000000000000000000000000000000000000000000000000000000000
310
00000000000000000000000000000000000000000000000000000000000000000000000000000000000000000000000000000000000000000000000000000000000000000000000000000000000000000000000000000000000000010000000000000000000000000000000000000001000000000000000000000000000001
310
01010000010100010000000100010100000001010100000000000000000000000000000000000000000000000000000000000000000000000000000000000000000000000000000000000000000000000000000000000000000000000000000000000000000000000000000000000000000000000000000000000000000000
310
00000000000000000000000000000000000100000000000000000000000000000000000000010000000000000000000000000000010101000000010100010001000101000000000101010000000000000000000000000000000000000000000000000000000000000000000000000000000000000000000000000000000000
310
00000000000000000000000000000000000000000000000000000000000000000000000000000000000000000000000000000000000000000000000000000000000000000000010000000000000000000000000000000000000001000000000000000000000000000001010100000000010100010101010000000000010101
310
00000000000000000000000000000000000000000000000000000000000000000000000000000000000000000000000000000000000000000000000000000000000000000000000000000000000000000000000000000000000000000000000000000000000000000000000000000000000000000000000000000001000000
310
00000000000000000000000000000000010000000000000000000000000000010101000000000001010000010000000000000101010000000000000000000000000000000000000000000000000000000000000000000000000000000000000000000000000000000000000000000000000000000000000000000000000000
310
00000000000000000000000000000000000000000000000000000000000000000000000000000000000000000000000000010000010101010100000000000101010101000001000000000000000000000000000001010100000000000001000001000000000000010101000000000000000000000000000000000000000000
310
00000000000000000000000000000000000000000000000000000000000000000000000000000000000000000000000000000000000000000000000000000000000000000000000000000000000000000000000000000000000000000000000000000000000001000001010000010000000000010100000100000100000000
310
00000000000000000000010101000000000001010000010000000000000101010000000000000000000000000000000000000000000000000000000000000000000000000000000000000000000000000000000000000000000000000000000000000000000000000000000000000000000000000000000000000000000000
310
00000000000000000000000000000000000000000000000000000000010000010100000100000000000101000001000001000000000000000000000000000001010100000000010000010100010000000000010101000000000000000000000000000000000000000000000000000000000000000000000000000000000000
310
00000000000000000000000000000000000000000000000000000000000000000000000000000000000000000000000000000000000000000000000000000000000000000000000000000000000000000001000001010000010000000000010100000100000100000000000000000000000000000101010000000100010000
310
00010001000000000101010000000000000000000000000000000000000000000000000000000000000000000000000000000000000000000000000000000000000000000000000000000000000000000000000000000000000000000000000000000000000000000000000000000000000000000000000000000000000000
310
00000000000000010000010100000100000000000101000001000001000000000000000000000000000001010100000100010000000000010001000000010101000000000000000000000000000000000000000000000000000000000000000000000000000000000000000000000000000000000000000000000000000000
310
00000000000000000000000000000000000000000000000000000000000000000000000000000000000000000000000000000000000000000000000101010001010000010000000000010100000100000101000000000000000000000000000101010001000100000000000000010001000001010100000000000000000000
310
00000000000000000000000000000000000000000000000000000000000000000000000000000000000000000000000000000000000000000000000000000000000000000000000000000000000000000000000000000000000000000000000000000000000000000000000000000000010100000101000001000000000001
310
01000001000000010000000000000000000000000001000101000100000000000000000001000100010001000000000000000000000000000000000000000000000000000000000000000000000000000000000000000000000000000000000000000000000000000000000000000000000000000000000000000000000000
310
00000000000000000000000000000000000000000000000000000000000000000000000000000101000001010000010000000000010100000100000001000000000000000000000000000100010101000000000000000000000001000101000100000000000000000000000000000000000000000000000000000000000000
310
00000000000000000000000000000000000000000000000000000000000000000000000000000000000000000000000000000000000000000000000000000000000000000000000000000000000000000000000000000000000000010100000001010101000000000000010101010000010100000000000000000000000000
310
01010000010000000000000000000000000100000101000000000000000000000000000000000000000000000000000000000000000000000000000000000000000000000000000000000000000000000000000000000000000000000000000000000000000000000000000000000000000000000000000000000000000000
310
00000000000000000000000000000000000001010000000000000000000000000000000000000100000000000000000000000000000101000001010101010101010101010101010000010100000000000000000000000000000000000000000000000000000000000000000000000000000000000000000000000000000000
310
00000000000000000000000000000000000000000000000000000000000000000000000000000000000000000000000000000000000000000000000000000000000000000000000100000000000000000000000000000000000000010000000000000000000000000000010100000000000000000000000000000000000001
310
01000000000000000000000000000000000000000000000000000000000000000000000000000000000000000000000000000000000000000000000000000000000000000000000000000000000000000000000000000000000000000000000000000000000000000000000000000000000000000000000000000000010101
310
01010101010101010101010101010101010100000000000000000000000000000101010101010101010101010101010101010101010100000000000000000000000000000000000000000000000000000000000000000000000000000000000000000000000000000000000000000000000000000000000000000000000000
310
00000000000000000000000000000000000000000000000000000000000000000000000000000000000000000000000000000000000000000000000000000000000000000000000000000000000000000000000000FE00000000000000000000000000000000000000000000
  0
ENDSEC
  0
EOF
