  0
SECTION
  2
HEADER
  9
$ACADVER
  1
AC1021
  9
$ACADMAINTVER
 70
    25
  9
$DWGCODEPAGE
  3
ANSI_1251
  9
$INSBASE
 10
0.0
 20
0.0
 30
0.0
  9
$EXTMIN
 10
1.000000000000000E+20
 20
1.000000000000000E+20
 30
1.000000000000000E+20
  9
$EXTMAX
 10
-1.000000000000000E+20
 20
-1.000000000000000E+20
 30
-1.000000000000000E+20
  9
$LIMMIN
 10
0.0
 20
0.0
  9
$LIMMAX
 10
420.0
 20
297.0
  9
$ORTHOMODE
 70
     0
  9
$REGENMODE
 70
     1
  9
$FILLMODE
 70
     1
  9
$QTEXTMODE
 70
     0
  9
$MIRRTEXT
 70
     1
  9
$LTSCALE
 40
1.0
  9
$ATTMODE
 70
     1
  9
$TEXTSIZE
 40
2.5
  9
$TRACEWID
 40
1.0
  9
$TEXTSTYLE
  7
Standard
  9
$CLAYER
  8
0
  9
$CELTYPE
  6
ByLayer
  9
$CECOLOR
 62
   256
  9
$CELTSCALE
 40
1.0
  9
$DISPSILH
 70
     0
  9
$DIMSCALE
 40
1.0
  9
$DIMASZ
 40
2.5
  9
$DIMEXO
 40
0.625
  9
$DIMDLI
 40
3.75
  9
$DIMRND
 40
0.0
  9
$DIMDLE
 40
0.0
  9
$DIMEXE
 40
1.25
  9
$DIMTP
 40
0.0
  9
$DIMTM
 40
0.0
  9
$DIMTXT
 40
2.5
  9
$DIMCEN
 40
2.5
  9
$DIMTSZ
 40
0.0
  9
$DIMTOL
 70
     0
  9
$DIMLIM
 70
     0
  9
$DIMTIH
 70
     0
  9
$DIMTOH
 70
     0
  9
$DIMSE1
 70
     0
  9
$DIMSE2
 70
     0
  9
$DIMTAD
 70
     1
  9
$DIMZIN
 70
     8
  9
$DIMBLK
  1

  9
$DIMASO
 70
     1
  9
$DIMSHO
 70
     1
  9
$DIMPOST
  1

  9
$DIMAPOST
  1

  9
$DIMALT
 70
     0
  9
$DIMALTD
 70
     3
  9
$DIMALTF
 40
0.03937007874016
  9
$DIMLFAC
 40
1.0
  9
$DIMTOFL
 70
     1
  9
$DIMTVP
 40
0.0
  9
$DIMTIX
 70
     0
  9
$DIMSOXD
 70
     0
  9
$DIMSAH
 70
     0
  9
$DIMBLK1
  1

  9
$DIMBLK2
  1

  9
$DIMSTYLE
  2
ISO-25
  9
$DIMCLRD
 70
     0
  9
$DIMCLRE
 70
     0
  9
$DIMCLRT
 70
     0
  9
$DIMTFAC
 40
1.0
  9
$DIMGAP
 40
0.625
  9
$DIMJUST
 70
     0
  9
$DIMSD1
 70
     0
  9
$DIMSD2
 70
     0
  9
$DIMTOLJ
 70
     0
  9
$DIMTZIN
 70
     8
  9
$DIMALTZ
 70
     0
  9
$DIMALTTZ
 70
     0
  9
$DIMUPT
 70
     0
  9
$DIMDEC
 70
     2
  9
$DIMTDEC
 70
     2
  9
$DIMALTU
 70
     2
  9
$DIMALTTD
 70
     3
  9
$DIMTXSTY
  7
Standard
  9
$DIMAUNIT
 70
     0
  9
$DIMADEC
 70
     0
  9
$DIMALTRND
 40
0.0
  9
$DIMAZIN
 70
     0
  9
$DIMDSEP
 70
    44
  9
$DIMATFIT
 70
     3
  9
$DIMFRAC
 70
     0
  9
$DIMLDRBLK
  1

  9
$DIMLUNIT
 70
     2
  9
$DIMLWD
 70
    -2
  9
$DIMLWE
 70
    -2
  9
$DIMTMOVE
 70
     0
  9
$DIMFXL
 40
1.0
  9
$DIMFXLON
 70
     0
  9
$DIMJOGANG
 40
0.7853981633974483
  9
$DIMTFILL
 70
     0
  9
$DIMTFILLCLR
 70
     0
  9
$DIMARCSYM
 70
     0
  9
$DIMLTYPE
  6

  9
$DIMLTEX1
  6

  9
$DIMLTEX2
  6

  9
$LUNITS
 70
     2
  9
$LUPREC
 70
     4
  9
$SKETCHINC
 40
1.0
  9
$FILLETRAD
 40
10.0
  9
$AUNITS
 70
     0
  9
$AUPREC
 70
     0
  9
$MENU
  1
.
  9
$ELEVATION
 40
0.0
  9
$PELEVATION
 40
0.0
  9
$THICKNESS
 40
0.0
  9
$LIMCHECK
 70
     0
  9
$CHAMFERA
 40
10.0
  9
$CHAMFERB
 40
10.0
  9
$CHAMFERC
 40
20.0
  9
$CHAMFERD
 40
0.0
  9
$SKPOLY
 70
     0
  9
$TDCREATE
 40
2456157.536179468
  9
$TDUCREATE
 40
2456157.369512801
  9
$TDUPDATE
 40
2456157.536179479
  9
$TDUUPDATE
 40
2456157.369512813
  9
$TDINDWG
 40
0.0000000116
  9
$TDUSRTIMER
 40
0.0000000116
  9
$USRTIMER
 70
     1
  9
$ANGBASE
 50
0.0
  9
$ANGDIR
 70
     0
  9
$PDMODE
 70
     0
  9
$PDSIZE
 40
0.0
  9
$PLINEWID
 40
0.0
  9
$SPLFRAME
 70
     0
  9
$SPLINETYPE
 70
     6
  9
$SPLINESEGS
 70
     8
  9
$HANDSEED
  5
167
  9
$SURFTAB1
 70
     6
  9
$SURFTAB2
 70
     6
  9
$SURFTYPE
 70
     6
  9
$SURFU
 70
     6
  9
$SURFV
 70
     6
  9
$UCSBASE
  2

  9
$UCSNAME
  2

  9
$UCSORG
 10
0.0
 20
0.0
 30
0.0
  9
$UCSXDIR
 10
1.0
 20
0.0
 30
0.0
  9
$UCSYDIR
 10
0.0
 20
1.0
 30
0.0
  9
$UCSORTHOREF
  2

  9
$UCSORTHOVIEW
 70
     0
  9
$UCSORGTOP
 10
0.0
 20
0.0
 30
0.0
  9
$UCSORGBOTTOM
 10
0.0
 20
0.0
 30
0.0
  9
$UCSORGLEFT
 10
0.0
 20
0.0
 30
0.0
  9
$UCSORGRIGHT
 10
0.0
 20
0.0
 30
0.0
  9
$UCSORGFRONT
 10
0.0
 20
0.0
 30
0.0
  9
$UCSORGBACK
 10
0.0
 20
0.0
 30
0.0
  9
$PUCSBASE
  2

  9
$PUCSNAME
  2

  9
$PUCSORG
 10
0.0
 20
0.0
 30
0.0
  9
$PUCSXDIR
 10
1.0
 20
0.0
 30
0.0
  9
$PUCSYDIR
 10
0.0
 20
1.0
 30
0.0
  9
$PUCSORTHOREF
  2

  9
$PUCSORTHOVIEW
 70
     0
  9
$PUCSORGTOP
 10
0.0
 20
0.0
 30
0.0
  9
$PUCSORGBOTTOM
 10
0.0
 20
0.0
 30
0.0
  9
$PUCSORGLEFT
 10
0.0
 20
0.0
 30
0.0
  9
$PUCSORGRIGHT
 10
0.0
 20
0.0
 30
0.0
  9
$PUCSORGFRONT
 10
0.0
 20
0.0
 30
0.0
  9
$PUCSORGBACK
 10
0.0
 20
0.0
 30
0.0
  9
$USERI1
 70
     0
  9
$USERI2
 70
     0
  9
$USERI3
 70
     0
  9
$USERI4
 70
     0
  9
$USERI5
 70
     0
  9
$USERR1
 40
0.0
  9
$USERR2
 40
0.0
  9
$USERR3
 40
0.0
  9
$USERR4
 40
0.0
  9
$USERR5
 40
0.0
  9
$WORLDVIEW
 70
     1
  9
$SHADEDGE
 70
     3
  9
$SHADEDIF
 70
    70
  9
$TILEMODE
 70
     1
  9
$MAXACTVP
 70
    64
  9
$PINSBASE
 10
0.0
 20
0.0
 30
0.0
  9
$PLIMCHECK
 70
     0
  9
$PEXTMIN
 10
1.000000000000000E+20
 20
1.000000000000000E+20
 30
1.000000000000000E+20
  9
$PEXTMAX
 10
-1.000000000000000E+20
 20
-1.000000000000000E+20
 30
-1.000000000000000E+20
  9
$PLIMMIN
 10
0.0
 20
0.0
  9
$PLIMMAX
 10
420.0
 20
297.0
  9
$UNITMODE
 70
     0
  9
$VISRETAIN
 70
     1
  9
$PLINEGEN
 70
     0
  9
$PSLTSCALE
 70
     1
  9
$TREEDEPTH
 70
  3020
  9
$CMLSTYLE
  2
Standard
  9
$CMLJUST
 70
     0
  9
$CMLSCALE
 40
20.0
  9
$PROXYGRAPHICS
 70
     1
  9
$MEASUREMENT
 70
     1
  9
$CELWEIGHT
370
    -1
  9
$ENDCAPS
280
     0
  9
$JOINSTYLE
280
     0
  9
$LWDISPLAY
290
     0
  9
$INSUNITS
 70
     4
  9
$HYPERLINKBASE
  1

  9
$STYLESHEET
  1

  9
$XEDIT
290
     1
  9
$CEPSNTYPE
380
     0
  9
$PSTYLEMODE
290
     1
  9
$FINGERPRINTGUID
  2
{D89BE844-4A1B-4610-AD32-8C4CFF5EFF78}
  9
$VERSIONGUID
  2
{FAEB1C32-E019-11D5-929B-00C0DF256EC4}
  9
$EXTNAMES
290
     1
  9
$PSVPSCALE
 40
0.0
  9
$OLESTARTUP
290
     0
  9
$SORTENTS
280
   127
  9
$INDEXCTL
280
     0
  9
$HIDETEXT
280
     1
  9
$XCLIPFRAME
290
     0
  9
$HALOGAP
280
     0
  9
$OBSCOLOR
 70
   257
  9
$OBSLTYPE
280
     0
  9
$INTERSECTIONDISPLAY
280
     0
  9
$INTERSECTIONCOLOR
 70
   257
  9
$DIMASSOC
280
     2
  9
$PROJECTNAME
  1

  9
$CAMERADISPLAY
290
     0
  9
$LENSLENGTH
 40
50.0
  9
$CAMERAHEIGHT
 40
0.0
  9
$STEPSPERSEC
 40
2.0
  9
$STEPSIZE
 40
6.0
  9
$3DDWFPREC
 40
2.0
  9
$PSOLWIDTH
 40
5.0
  9
$PSOLHEIGHT
 40
80.0
  9
$LOFTANG1
 40
1.570796326794897
  9
$LOFTANG2
 40
1.570796326794897
  9
$LOFTMAG1
 40
0.0
  9
$LOFTMAG2
 40
0.0
  9
$LOFTPARAM
 70
     7
  9
$LOFTNORMALS
280
     1
  9
$LATITUDE
 40
37.795
  9
$LONGITUDE
 40
-122.394
  9
$NORTHDIRECTION
 40
0.0
  9
$TIMEZONE
 70
 -8000
  9
$LIGHTGLYPHDISPLAY
280
     1
  9
$TILEMODELIGHTSYNCH
280
     1
  9
$SOLIDHIST
280
     1
  9
$SHOWHIST
280
     1
  9
$DWFFRAME
280
     2
  9
$DGNFRAME
280
     2
  9
$REALWORLDSCALE
290
     1
  9
$INTERFERECOLOR
 62
   256
  9
$CSHADOW
280
     0
  9
$SHADOWPLANELOCATION
 40
0.0
  0
ENDSEC
  0
SECTION
  2
CLASSES
  0
CLASS
  1
ACDBDICTIONARYWDFLT
  2
AcDbDictionaryWithDefault
  3
ObjectDBX Classes
 90
        0
 91
        4
280
     0
281
     0
  0
CLASS
  1
VISUALSTYLE
  2
AcDbVisualStyle
  3
ObjectDBX Classes
 90
     4095
 91
        4
280
     0
281
     0
  0
CLASS
  1
MATERIAL
  2
AcDbMaterial
  3
ObjectDBX Classes
 90
     1153
 91
        4
280
     0
281
     0
  0
CLASS
  1
IMAGEDEF
  2
AcDbRasterImageDef
  3
ISM
 90
        0
 91
        4
280
     0
281
     0
  0
CLASS
  1
RASTERVARIABLES
  2
AcDbRasterVariables
  3
ISM
 90
        0
 91
        4
280
     0
281
     0
  0
CLASS
  1
IMAGE
  2
AcDbRasterImage
  3
ISM
 90
      127
 91
        5
280
     0
281
     1
  0
CLASS
  1
IMAGEDEF_REACTOR
  2
AcDbRasterImageDefReactor
  3
ISM
 90
        1
 91
        4
280
     0
281
     0
  0
CLASS
  1
SCALE
  2
AcDbScale
  3
ObjectDBX Classes
 90
     1153
 91
        4
280
     0
281
     0
  0
CLASS
  1
DICTIONARYVAR
  2
AcDbDictionaryVar
  3
ObjectDBX Classes
 90
        0
 91
        4
280
     0
281
     0
  0
ENDSEC
  0
SECTION
  2
TABLES
  0
TABLE
  2
VPORT
  5
8
330
0
100
AcDbSymbolTable
 70
     1
  0
VPORT
  5
29
330
8
100
AcDbSymbolTableRecord
100
AcDbViewportTableRecord
  2
*Active
 70
     0
 10
0.0
 20
0.0
 11
1.0
 21
1.0
 12
477.0694150836445
 22
194.8909773099293
 13
0.0
 23
0.0
 14
10.0
 24
10.0
 15
10.0
 25
10.0
 16
0.0
 26
0.0
 36
1.0
 17
0.0
 27
0.0
 37
0.0
 40
569.1541799399488
 41
1.963221823707131
 42
50.0
 43
0.0
 44
0.0
 50
0.0
 51
0.0
 71
     0
 72
   100
 73
     1
 74
     3
 75
     0
 76
     0
 77
     0
 78
     0
281
     0
 65
     1
110
0.0
120
0.0
130
0.0
111
1.0
121
0.0
131
0.0
112
0.0
122
1.0
132
0.0
 79
     0
146
0.0
 60
     3
 61
     5
292
     1
282
     1
141
0.0
142
0.0
 63
   250
  0
ENDTAB
  0
TABLE
  2
LTYPE
  5
5
330
0
100
AcDbSymbolTable
 70
     3
  0
LTYPE
  5
14
330
5
100
AcDbSymbolTableRecord
100
AcDbLinetypeTableRecord
  2
ByBlock
 70
     0
  3

 72
    65
 73
     0
 40
0.0
  0
LTYPE
  5
15
330
5
100
AcDbSymbolTableRecord
100
AcDbLinetypeTableRecord
  2
ByLayer
 70
     0
  3

 72
    65
 73
     0
 40
0.0
  0
LTYPE
  5
16
330
5
100
AcDbSymbolTableRecord
100
AcDbLinetypeTableRecord
  2
Continuous
 70
     0
  3
Solid line
 72
    65
 73
     0
 40
0.0
  0
LTYPE
  5
43
330
5
100
AcDbSymbolTableRecord
100
AcDbLinetypeTableRecord
  2
K5LT_THIN
 70
     0
  3

 72
    65
 73
     0
 40
0.0
  0
LTYPE
  5
B0
330
5
100
AcDbSymbolTableRecord
100
AcDbLinetypeTableRecord
  2
K5LT_BASIC
 70
     0
  3

 72
    65
 73
     0
 40
0.0
  0
ENDTAB
  0
TABLE
  2
LAYER
  5
2
330
0
100
AcDbSymbolTable
 70
     3
  0
LAYER
  5
10
330
2
100
AcDbSymbolTableRecord
100
AcDbLayerTableRecord
  2
0
 70
     0
 62
    -7
  6
Continuous
370
    -3
390
F
347
3E
  0
LAYER
  5
40
330
2
100
AcDbSymbolTableRecord
100
AcDbLayerTableRecord
  2
Рама 1
 70
     0
 62
    -7
  6
Continuous
370
    -3
390
F
347
3E
  0
LAYER
  5
41
330
2
100
AcDbSymbolTableRecord
100
AcDbLayerTableRecord
  2
Эскиз
 70
     0
 62
     7
  6
Continuous
370
    -3
390
F
347
3E
  0
ENDTAB
  0
TABLE
  2
STYLE
  5
3
330
0
100
AcDbSymbolTable
 70
     1
  0
STYLE
  5
11
330
3
100
AcDbSymbolTableRecord
100
AcDbTextStyleTableRecord
  2
Standard
 70
     0
 40
0.0
 41
1.0
 50
0.0
 71
     0
 42
2.5
  3
txt
  4

  0
ENDTAB
  0
TABLE
  2
VIEW
  5
6
330
0
100
AcDbSymbolTable
 70
     0
  0
ENDTAB
  0
TABLE
  2
UCS
  5
7
330
0
100
AcDbSymbolTable
 70
     0
  0
ENDTAB
  0
TABLE
  2
APPID
  5
9
330
0
100
AcDbSymbolTable
 70
     2
  0
APPID
  5
12
330
9
100
AcDbSymbolTableRecord
100
AcDbRegAppTableRecord
  2
ACAD
 70
     0
  0
APPID
  5
3F
330
9
100
AcDbSymbolTableRecord
100
AcDbRegAppTableRecord
  2
KOMPAS
 70
     0
  0
ENDTAB
  0
TABLE
  2
DIMSTYLE
  5
A
330
0
100
AcDbSymbolTable
 70
     1
100
AcDbDimStyleTable
  0
DIMSTYLE
105
27
330
A
100
AcDbSymbolTableRecord
100
AcDbDimStyleTableRecord
  2
ISO-25
 70
     0
 41
2.5
 42
0.625
 43
3.75
 44
1.25
 73
     0
 74
     0
 77
     1
 78
     8
140
2.5
141
2.5
143
0.03937007874016
147
0.625
171
     3
172
     1
271
     2
272
     2
274
     3
278
    44
283
     0
284
     8
340
11
  0
ENDTAB
  0
TABLE
  2
BLOCK_RECORD
  5
1
330
0
100
AcDbSymbolTable
 70
    15
  0
BLOCK_RECORD
  5
1F
330
1
100
AcDbSymbolTableRecord
100
AcDbBlockTableRecord
  2
*Model_Space
340
22
 70
     0
280
     1
281
     0
  0
BLOCK_RECORD
  5
1B
330
1
100
AcDbSymbolTableRecord
100
AcDbBlockTableRecord
  2
*Paper_Space
340
1E
 70
     0
280
     1
281
     0
  0
BLOCK_RECORD
  5
23
330
1
100
AcDbSymbolTableRecord
100
AcDbBlockTableRecord
  2
*Paper_Space0
340
26
 70
     0
280
     1
281
     0
  0
BLOCK_RECORD
  5
42
330
1
100
AcDbSymbolTableRecord
100
AcDbBlockTableRecord
  2
KDIMARROW_00
340
0
 70
     0
280
     1
281
     0
  0
BLOCK_RECORD
  5
47
330
1
100
AcDbSymbolTableRecord
100
AcDbBlockTableRecord
  2
KDIMARROW_01
340
0
 70
     0
280
     1
281
     0
  0
BLOCK_RECORD
  5
50
330
1
100
AcDbSymbolTableRecord
100
AcDbBlockTableRecord
  2
KDIMARROW_02
340
0
 70
     0
280
     1
281
     0
  0
BLOCK_RECORD
  5
5A
330
1
100
AcDbSymbolTableRecord
100
AcDbBlockTableRecord
  2
KDIMARROW_03
340
0
 70
     0
280
     1
281
     0
  0
BLOCK_RECORD
  5
60
330
1
100
AcDbSymbolTableRecord
100
AcDbBlockTableRecord
  2
KDIMARROW_04
340
0
 70
     0
280
     1
281
     0
  0
BLOCK_RECORD
  5
66
330
1
100
AcDbSymbolTableRecord
100
AcDbBlockTableRecord
  2
KDIMARROW_05
340
0
 70
     0
280
     1
281
     0
  0
BLOCK_RECORD
  5
6F
330
1
100
AcDbSymbolTableRecord
100
AcDbBlockTableRecord
  2
KDIMARROW_06
340
0
 70
     0
280
     1
281
     0
  0
BLOCK_RECORD
  5
79
330
1
100
AcDbSymbolTableRecord
100
AcDbBlockTableRecord
  2
KDIMARROW_07
340
0
 70
     0
280
     1
281
     0
  0
BLOCK_RECORD
  5
7F
330
1
100
AcDbSymbolTableRecord
100
AcDbBlockTableRecord
  2
KDIMARROW_08
340
0
 70
     0
280
     1
281
     0
  0
BLOCK_RECORD
  5
86
330
1
100
AcDbSymbolTableRecord
100
AcDbBlockTableRecord
  2
KDIMARROW_09
340
0
 70
     0
280
     1
281
     0
  0
BLOCK_RECORD
  5
8C
330
1
100
AcDbSymbolTableRecord
100
AcDbBlockTableRecord
  2
KDIMARROW_10
340
0
 70
     0
280
     1
281
     0
  0
BLOCK_RECORD
  5
93
330
1
100
AcDbSymbolTableRecord
100
AcDbBlockTableRecord
  2
KDIMARROW_11
340
0
 70
     0
280
     1
281
     0
  0
BLOCK_RECORD
  5
99
330
1
100
AcDbSymbolTableRecord
100
AcDbBlockTableRecord
  2
KDIMARROW_12
340
0
 70
     0
280
     1
281
     0
  0
BLOCK_RECORD
  5
9F
330
1
100
AcDbSymbolTableRecord
100
AcDbBlockTableRecord
  2
KDIMARROW_13
340
0
 70
     0
280
     1
281
     0
  0
ENDTAB
  0
ENDSEC
  0
SECTION
  2
BLOCKS
  0
BLOCK
  5
20
330
1F
100
AcDbEntity
  8
0
100
AcDbBlockBegin
  2
*Model_Space
 70
     0
 10
0.0
 20
0.0
 30
0.0
  3
*Model_Space
  1

  0
ENDBLK
  5
21
330
1F
100
AcDbEntity
  8
0
100
AcDbBlockEnd
  0
BLOCK
  5
1C
330
1B
100
AcDbEntity
 67
     1
  8
0
100
AcDbBlockBegin
  2
*Paper_Space
 70
     0
 10
0.0
 20
0.0
 30
0.0
  3
*Paper_Space
  1

  0
ENDBLK
  5
1D
330
1B
100
AcDbEntity
 67
     1
  8
0
100
AcDbBlockEnd
  0
BLOCK
  5
24
330
23
100
AcDbEntity
  8
0
100
AcDbBlockBegin
  2
*Paper_Space0
 70
     0
 10
0.0
 20
0.0
 30
0.0
  3
*Paper_Space0
  1

  0
ENDBLK
  5
25
330
23
100
AcDbEntity
  8
0
100
AcDbBlockEnd
  0
BLOCK
  5
45
330
42
100
AcDbEntity
  8
0
100
AcDbBlockBegin
  2
KDIMARROW_00
 70
     0
 10
0.0
 20
0.0
 30
0.0
  3
KDIMARROW_00
  1

  0
LINE
  5
44
330
42
100
AcDbEntity
  8
Эскиз
  6
K5LT_THIN
 62
     0
370
    18
100
AcDbLine
 10
0.0
 20
0.0
 30
0.0
 11
-1.0
 21
0.0
 31
0.0
  0
ENDBLK
  5
46
330
42
100
AcDbEntity
  8
0
100
AcDbBlockEnd
  0
BLOCK
  5
4E
330
47
100
AcDbEntity
  8
0
100
AcDbBlockBegin
  2
KDIMARROW_01
 70
     0
 10
0.0
 20
0.0
 30
0.0
  3
KDIMARROW_01
  1

  0
LINE
  5
48
330
47
100
AcDbEntity
  8
0
  6
K5LT_THIN
 62
     0
370
    18
100
AcDbLine
 10
0.0
 20
0.0
 30
0.0
 11
-5.000000000000002
 21
-0.6582624912261958
 31
0.0
  0
LINE
  5
49
330
47
100
AcDbEntity
  8
0
  6
K5LT_THIN
 62
     0
370
    18
100
AcDbLine
 10
-5.0
 20
-0.6582624912261956
 30
0.0
 11
-4.5
 21
0.0000000000000004
 31
0.0
  0
LINE
  5
4A
330
47
100
AcDbEntity
  8
0
  6
K5LT_THIN
 62
     0
370
    18
100
AcDbLine
 10
-4.5
 20
0.0000000000000006
 30
0.0
 11
-5.0
 21
0.658262491226197
 31
0.0
  0
LINE
  5
4B
330
47
100
AcDbEntity
  8
0
  6
K5LT_THIN
 62
     0
370
    18
100
AcDbLine
 10
-5.0
 20
0.658262491226197
 30
0.0
 11
0.0000000000000018
 21
0.0
 31
0.0
  0
HATCH
  5
4C
330
47
100
AcDbEntity
  8
0
 62
     0
100
AcDbHatch
 10
0.0
 20
0.0
 30
0.0
210
0.0
220
0.0
230
1.0
  2
SOLID
 70
     1
 71
     0
 91
        1
 92
        1
 93
        4
 72
     1
 10
-5.000000000000002
 20
-0.6582624912261958
 11
0.0
 21
0.0
 72
     1
 10
0.0000000000000018
 20
0.0
 11
-5.0
 21
0.658262491226197
 72
     1
 10
-5.0
 20
0.658262491226197
 11
-4.5
 21
0.0000000000000007
 72
     1
 10
-4.5
 20
0.0000000000000004
 11
-5.0
 21
-0.6582624912261956
 97
        0
 75
     0
 76
     1
 98
        0
  0
LINE
  5
4D
330
47
100
AcDbEntity
  8
Эскиз
  6
K5LT_THIN
 62
     0
370
    18
100
AcDbLine
 10
0.0
 20
0.0
 30
0.0
 11
-1.0
 21
0.0
 31
0.0
  0
ENDBLK
  5
4F
330
47
100
AcDbEntity
  8
0
100
AcDbBlockEnd
  0
BLOCK
  5
58
330
50
100
AcDbEntity
  8
0
100
AcDbBlockBegin
  2
KDIMARROW_02
 70
     0
 10
0.0
 20
0.0
 30
0.0
  3
KDIMARROW_02
  1

  0
LINE
  5
51
330
50
100
AcDbEntity
  8
0
  6
K5LT_THIN
 62
     0
370
    18
100
AcDbLine
 10
0.0
 20
0.0
 30
0.0
 11
5.000000000000002
 21
-0.658262491226197
 31
0.0
  0
LINE
  5
52
330
50
100
AcDbEntity
  8
0
  6
K5LT_THIN
 62
     0
370
    18
100
AcDbLine
 10
5.0
 20
-0.658262491226197
 30
0.0
 11
4.5
 21
-0.0000000000000006
 31
0.0
  0
LINE
  5
53
330
50
100
AcDbEntity
  8
0
  6
K5LT_THIN
 62
     0
370
    18
100
AcDbLine
 10
4.5
 20
-0.0000000000000006
 30
0.0
 11
5.0
 21
0.6582624912261955
 31
0.0
  0
LINE
  5
54
330
50
100
AcDbEntity
  8
0
  6
K5LT_THIN
 62
     0
370
    18
100
AcDbLine
 10
5.0
 20
0.6582624912261956
 30
0.0
 11
-0.0000000000000018
 21
-0.0000000000000002
 31
0.0
  0
LINE
  5
55
330
50
100
AcDbEntity
  8
0
  6
K5LT_THIN
 62
     0
370
    18
100
AcDbLine
 10
0.0
 20
0.0
 30
0.0
 11
7.0
 21
-0.0000000000000009
 31
0.0
  0
HATCH
  5
56
330
50
100
AcDbEntity
  8
0
 62
     0
100
AcDbHatch
 10
0.0
 20
0.0
 30
0.0
210
0.0
220
0.0
230
1.0
  2
SOLID
 70
     1
 71
     0
 91
        1
 92
        1
 93
        4
 72
     1
 10
4.5
 20
-0.0000000000000006
 11
5.0
 21
0.6582624912261955
 72
     1
 10
5.0
 20
0.6582624912261956
 11
-0.0000000000000018
 21
-0.0000000000000002
 72
     1
 10
0.0
 20
0.0
 11
5.000000000000002
 21
-0.658262491226197
 72
     1
 10
5.0
 20
-0.658262491226197
 11
4.5
 21
-0.0000000000000007
 97
        0
 75
     0
 76
     1
 98
        0
  0
LINE
  5
57
330
50
100
AcDbEntity
  8
Эскиз
  6
K5LT_THIN
 62
     0
370
    18
100
AcDbLine
 10
0.0
 20
0.0
 30
0.0
 11
-1.0
 21
0.0
 31
0.0
  0
ENDBLK
  5
59
330
50
100
AcDbEntity
  8
0
100
AcDbBlockEnd
  0
BLOCK
  5
5E
330
5A
100
AcDbEntity
  8
0
100
AcDbBlockBegin
  2
KDIMARROW_03
 70
     0
 10
0.0
 20
0.0
 30
0.0
  3
KDIMARROW_03
  1

  0
LINE
  5
5B
330
5A
100
AcDbEntity
  8
0
  6
K5LT_THIN
 62
     0
370
    18
100
AcDbLine
 10
-1.060500025749207
 20
-1.060500025749206
 30
0.0
 11
1.060500025749205
 21
1.060500025749205
 31
0.0
  0
LINE
  5
5C
330
5A
100
AcDbEntity
  8
0
  6
K5LT_THIN
 62
     0
370
    18
100
AcDbLine
 10
0.0
 20
0.0
 30
0.0
 11
2.0
 21
-0.0000000000000002
 31
0.0
  0
LINE
  5
5D
330
5A
100
AcDbEntity
  8
Эскиз
  6
K5LT_THIN
 62
     0
370
    18
100
AcDbLine
 10
0.0
 20
0.0
 30
0.0
 11
-1.0
 21
0.0
 31
0.0
  0
ENDBLK
  5
5F
330
5A
100
AcDbEntity
  8
0
100
AcDbBlockEnd
  0
BLOCK
  5
64
330
60
100
AcDbEntity
  8
0
100
AcDbBlockBegin
  2
KDIMARROW_04
 70
     0
 10
0.0
 20
0.0
 30
0.0
  3
KDIMARROW_04
  1

  0
LWPOLYLINE
  5
61
330
60
100
AcDbEntity
  8
0
  6
K5LT_THIN
 62
     7
100
AcDbPolyline
 90
       15
 70
     0
 43
0.18
 10
-0.25
 20
0.0
 10
0.0
 20
-0.25
 10
0.25
 20
0.0
 10
0.0
 20
0.25
 10
-0.25
 20
0.0
 10
-0.5
 20
0.0000000000000001
 10
-0.0000000000000001
 20
-0.5
 10
0.5
 20
-0.0000000000000001
 10
0.0000000000000001
 20
0.5
 10
-0.5
 20
0.0000000000000001
 10
-0.75
 20
0.0000000000000001
 10
-0.0000000000000001
 20
-0.75
 10
0.75
 20
-0.0000000000000001
 10
0.0000000000000001
 20
0.75
 10
-0.7499999999999999
 20
0.0000000000000001
  0
LWPOLYLINE
  5
62
330
60
100
AcDbEntity
  8
0
  6
K5LT_THIN
 62
     7
100
AcDbPolyline
 90
       15
 70
     0
 43
0.18
 10
-0.25
 20
0.0
 10
0.0
 20
-0.25
 10
0.25
 20
0.0
 10
0.0
 20
0.25
 10
-0.25
 20
0.0
 10
-0.5
 20
0.0000000000000001
 10
-0.0000000000000001
 20
-0.5
 10
0.5
 20
-0.0000000000000001
 10
0.0000000000000001
 20
0.5
 10
-0.5
 20
0.0000000000000001
 10
-0.75
 20
0.0000000000000001
 10
-0.0000000000000001
 20
-0.75
 10
0.75
 20
-0.0000000000000001
 10
0.0000000000000001
 20
0.75
 10
-0.7499999999999999
 20
0.0000000000000001
  0
LINE
  5
63
330
60
100
AcDbEntity
  8
Эскиз
  6
K5LT_THIN
 62
     0
370
    18
100
AcDbLine
 10
0.0
 20
0.0
 30
0.0
 11
-1.0
 21
0.0
 31
0.0
  0
ENDBLK
  5
65
330
60
100
AcDbEntity
  8
0
100
AcDbBlockEnd
  0
BLOCK
  5
6D
330
66
100
AcDbEntity
  8
0
100
AcDbBlockBegin
  2
KDIMARROW_05
 70
     0
 10
0.0
 20
0.0
 30
0.0
  3
KDIMARROW_05
  1

  0
LINE
  5
67
330
66
100
AcDbEntity
  8
0
  6
K5LT_THIN
 62
     0
370
    18
100
AcDbLine
 10
0.0
 20
0.0
 30
0.0
 11
-5.000000000000002
 21
-0.6582624912261958
 31
0.0
  0
LINE
  5
68
330
66
100
AcDbEntity
  8
0
  6
K5LT_THIN
 62
     0
370
    18
100
AcDbLine
 10
-5.0
 20
-0.6582624912261956
 30
0.0
 11
-5.0
 21
0.0000000000000007
 31
0.0
  0
LINE
  5
69
330
66
100
AcDbEntity
  8
0
  6
K5LT_THIN
 62
     0
370
    18
100
AcDbLine
 10
-5.0
 20
0.0000000000000006
 30
0.0
 11
-5.0
 21
0.658262491226197
 31
0.0
  0
LINE
  5
6A
330
66
100
AcDbEntity
  8
0
  6
K5LT_THIN
 62
     0
370
    18
100
AcDbLine
 10
-5.0
 20
0.658262491226197
 30
0.0
 11
0.0000000000000018
 21
0.0
 31
0.0
  0
HATCH
  5
6B
330
66
100
AcDbEntity
  8
0
 62
     0
100
AcDbHatch
 10
0.0
 20
0.0
 30
0.0
210
0.0
220
0.0
230
1.0
  2
SOLID
 70
     1
 71
     0
 91
        1
 92
        1
 93
        4
 72
     1
 10
-5.000000000000002
 20
-0.6582624912261958
 11
0.0
 21
0.0
 72
     1
 10
0.0000000000000018
 20
0.0
 11
-5.0
 21
0.658262491226197
 72
     1
 10
-5.0
 20
0.658262491226197
 11
-5.0
 21
0.0000000000000007
 72
     1
 10
-5.0
 20
0.0000000000000007
 11
-5.0
 21
-0.6582624912261956
 97
        0
 75
     0
 76
     1
 98
        0
  0
LINE
  5
6C
330
66
100
AcDbEntity
  8
Эскиз
  6
K5LT_THIN
 62
     0
370
    18
100
AcDbLine
 10
0.0
 20
0.0
 30
0.0
 11
-1.0
 21
0.0
 31
0.0
  0
ENDBLK
  5
6E
330
66
100
AcDbEntity
  8
0
100
AcDbBlockEnd
  0
BLOCK
  5
77
330
6F
100
AcDbEntity
  8
0
100
AcDbBlockBegin
  2
KDIMARROW_06
 70
     0
 10
0.0
 20
0.0
 30
0.0
  3
KDIMARROW_06
  1

  0
LINE
  5
70
330
6F
100
AcDbEntity
  8
0
  6
K5LT_THIN
 62
     0
370
    18
100
AcDbLine
 10
0.0
 20
0.0
 30
0.0
 11
5.000000000000002
 21
-0.658262491226197
 31
0.0
  0
LINE
  5
71
330
6F
100
AcDbEntity
  8
0
  6
K5LT_THIN
 62
     0
370
    18
100
AcDbLine
 10
5.0
 20
-0.658262491226197
 30
0.0
 11
5.0
 21
-0.0000000000000007
 31
0.0
  0
LINE
  5
72
330
6F
100
AcDbEntity
  8
0
  6
K5LT_THIN
 62
     0
370
    18
100
AcDbLine
 10
5.0
 20
-0.0000000000000006
 30
0.0
 11
5.0
 21
0.6582624912261956
 31
0.0
  0
LINE
  5
73
330
6F
100
AcDbEntity
  8
0
  6
K5LT_THIN
 62
     0
370
    18
100
AcDbLine
 10
5.0
 20
0.6582624912261956
 30
0.0
 11
-0.0000000000000018
 21
-0.0000000000000002
 31
0.0
  0
LINE
  5
74
330
6F
100
AcDbEntity
  8
0
  6
K5LT_THIN
 62
     0
370
    18
100
AcDbLine
 10
0.0
 20
0.0
 30
0.0
 11
7.0
 21
-0.0000000000000009
 31
0.0
  0
HATCH
  5
75
330
6F
100
AcDbEntity
  8
0
 62
     0
100
AcDbHatch
 10
0.0
 20
0.0
 30
0.0
210
0.0
220
0.0
230
1.0
  2
SOLID
 70
     1
 71
     0
 91
        1
 92
        1
 93
        4
 72
     1
 10
5.0
 20
-0.0000000000000006
 11
5.0
 21
0.6582624912261956
 72
     1
 10
5.0
 20
0.6582624912261956
 11
-0.0000000000000018
 21
-0.0000000000000002
 72
     1
 10
0.0
 20
0.0
 11
5.000000000000002
 21
-0.658262491226197
 72
     1
 10
5.0
 20
-0.658262491226197
 11
5.0
 21
-0.0000000000000007
 97
        0
 75
     0
 76
     1
 98
        0
  0
LINE
  5
76
330
6F
100
AcDbEntity
  8
Эскиз
  6
K5LT_THIN
 62
     0
370
    18
100
AcDbLine
 10
0.0
 20
0.0
 30
0.0
 11
-1.0
 21
0.0
 31
0.0
  0
ENDBLK
  5
78
330
6F
100
AcDbEntity
  8
0
100
AcDbBlockEnd
  0
BLOCK
  5
7D
330
79
100
AcDbEntity
  8
0
100
AcDbBlockBegin
  2
KDIMARROW_07
 70
     0
 10
0.0
 20
0.0
 30
0.0
  3
KDIMARROW_07
  1

  0
LINE
  5
7A
330
79
100
AcDbEntity
  8
0
  6
K5LT_THIN
 62
     0
370
    18
100
AcDbLine
 10
0.0
 20
0.0
 30
0.0
 11
-5.000000000000002
 21
-0.6582624912261958
 31
0.0
  0
LINE
  5
7B
330
79
100
AcDbEntity
  8
0
  6
K5LT_THIN
 62
     0
370
    18
100
AcDbLine
 10
0.0
 20
0.0
 30
0.0
 11
-5.000000000000002
 21
0.658262491226197
 31
0.0
  0
LINE
  5
7C
330
79
100
AcDbEntity
  8
Эскиз
  6
K5LT_THIN
 62
     0
370
    18
100
AcDbLine
 10
0.0
 20
0.0
 30
0.0
 11
-1.0
 21
0.0
 31
0.0
  0
ENDBLK
  5
7E
330
79
100
AcDbEntity
  8
0
100
AcDbBlockEnd
  0
BLOCK
  5
84
330
7F
100
AcDbEntity
  8
0
100
AcDbBlockBegin
  2
KDIMARROW_08
 70
     0
 10
0.0
 20
0.0
 30
0.0
  3
KDIMARROW_08
  1

  0
LINE
  5
80
330
7F
100
AcDbEntity
  8
0
  6
K5LT_THIN
 62
     0
370
    18
100
AcDbLine
 10
0.0
 20
0.0
 30
0.0
 11
5.000000000000002
 21
-0.658262491226197
 31
0.0
  0
LINE
  5
81
330
7F
100
AcDbEntity
  8
0
  6
K5LT_THIN
 62
     0
370
    18
100
AcDbLine
 10
0.0
 20
0.0
 30
0.0
 11
5.000000000000002
 21
0.6582624912261958
 31
0.0
  0
LINE
  5
82
330
7F
100
AcDbEntity
  8
0
  6
K5LT_THIN
 62
     0
370
    18
100
AcDbLine
 10
0.0
 20
0.0
 30
0.0
 11
7.0
 21
-0.0000000000000009
 31
0.0
  0
LINE
  5
83
330
7F
100
AcDbEntity
  8
Эскиз
  6
K5LT_THIN
 62
     0
370
    18
100
AcDbLine
 10
0.0
 20
0.0
 30
0.0
 11
-1.0
 21
0.0
 31
0.0
  0
ENDBLK
  5
85
330
7F
100
AcDbEntity
  8
0
100
AcDbBlockEnd
  0
BLOCK
  5
8A
330
86
100
AcDbEntity
  8
0
100
AcDbBlockBegin
  2
KDIMARROW_09
 70
     0
 10
0.0
 20
0.0
 30
0.0
  3
KDIMARROW_09
  1

  0
LINE
  5
87
330
86
100
AcDbEntity
  8
0
  6
K5LT_THIN
 62
     0
370
    18
100
AcDbLine
 10
0.0
 20
0.0
 30
0.0
 11
-1.999999999999999
 21
-1.999999999999999
 31
0.0
  0
LINE
  5
88
330
86
100
AcDbEntity
  8
0
  6
K5LT_THIN
 62
     0
370
    18
100
AcDbLine
 10
0.0
 20
0.0
 30
0.0
 11
-1.999999999999999
 21
1.999999999999999
 31
0.0
  0
LINE
  5
89
330
86
100
AcDbEntity
  8
Эскиз
  6
K5LT_THIN
 62
     0
370
    18
100
AcDbLine
 10
0.0
 20
0.0
 30
0.0
 11
-1.0
 21
0.0
 31
0.0
  0
ENDBLK
  5
8B
330
86
100
AcDbEntity
  8
0
100
AcDbBlockEnd
  0
BLOCK
  5
91
330
8C
100
AcDbEntity
  8
0
100
AcDbBlockBegin
  2
KDIMARROW_10
 70
     0
 10
0.0
 20
0.0
 30
0.0
  3
KDIMARROW_10
  1

  0
LINE
  5
8D
330
8C
100
AcDbEntity
  8
0
  6
K5LT_THIN
 62
     0
370
    18
100
AcDbLine
 10
0.0
 20
0.0
 30
0.0
 11
1.999999999999999
 21
-1.999999999999999
 31
0.0
  0
LINE
  5
8E
330
8C
100
AcDbEntity
  8
0
  6
K5LT_THIN
 62
     0
370
    18
100
AcDbLine
 10
0.0
 20
0.0
 30
0.0
 11
1.999999999999999
 21
1.999999999999999
 31
0.0
  0
LINE
  5
8F
330
8C
100
AcDbEntity
  8
0
  6
K5LT_THIN
 62
     0
370
    18
100
AcDbLine
 10
0.0
 20
0.0
 30
0.0
 11
4.0
 21
-0.0000000000000005
 31
0.0
  0
LINE
  5
90
330
8C
100
AcDbEntity
  8
Эскиз
  6
K5LT_THIN
 62
     0
370
    18
100
AcDbLine
 10
0.0
 20
0.0
 30
0.0
 11
-1.0
 21
0.0
 31
0.0
  0
ENDBLK
  5
92
330
8C
100
AcDbEntity
  8
0
100
AcDbBlockEnd
  0
BLOCK
  5
97
330
93
100
AcDbEntity
  8
0
100
AcDbBlockBegin
  2
KDIMARROW_11
 70
     0
 10
0.0
 20
0.0
 30
0.0
  3
KDIMARROW_11
  1

  0
CIRCLE
  5
94
330
93
100
AcDbEntity
  8
0
  6
K5LT_THIN
 62
     0
370
    18
100
AcDbCircle
 10
0.0
 20
0.0
 30
0.0
 40
2.5
  0
CIRCLE
  5
95
330
93
100
AcDbEntity
  8
0
  6
K5LT_THIN
 62
     0
370
    18
100
AcDbCircle
 10
0.0
 20
0.0
 30
0.0
 40
2.5
  0
LINE
  5
96
330
93
100
AcDbEntity
  8
Эскиз
  6
K5LT_THIN
 62
     0
370
    18
100
AcDbLine
 10
0.0
 20
0.0
 30
0.0
 11
-1.0
 21
0.0
 31
0.0
  0
ENDBLK
  5
98
330
93
100
AcDbEntity
  8
0
100
AcDbBlockEnd
  0
BLOCK
  5
9D
330
99
100
AcDbEntity
  8
0
100
AcDbBlockBegin
  2
KDIMARROW_12
 70
     0
 10
0.0
 20
0.0
 30
0.0
  3
KDIMARROW_12
  1

  0
CIRCLE
  5
9A
330
99
100
AcDbEntity
  8
0
  6
K5LT_THIN
 62
     0
370
    18
100
AcDbCircle
 10
0.0
 20
0.0
 30
0.0
 40
1.5
  0
CIRCLE
  5
9B
330
99
100
AcDbEntity
  8
0
  6
K5LT_THIN
 62
     0
370
    18
100
AcDbCircle
 10
0.0
 20
0.0
 30
0.0
 40
1.5
  0
LINE
  5
9C
330
99
100
AcDbEntity
  8
Эскиз
  6
K5LT_THIN
 62
     0
370
    18
100
AcDbLine
 10
0.0
 20
0.0
 30
0.0
 11
-1.0
 21
0.0
 31
0.0
  0
ENDBLK
  5
9E
330
99
100
AcDbEntity
  8
0
100
AcDbBlockEnd
  0
BLOCK
  5
A3
330
9F
100
AcDbEntity
  8
0
100
AcDbBlockBegin
  2
KDIMARROW_13
 70
     0
 10
0.0
 20
0.0
 30
0.0
  3
KDIMARROW_13
  1

  0
LINE
  5
A0
330
9F
100
AcDbEntity
  8
0
  6
K5LT_THIN
 62
     0
370
    18
100
AcDbLine
 10
-1.060500025749206
 20
1.060500025749207
 30
0.0
 11
1.060500025749205
 21
-1.060500025749205
 31
0.0
  0
LINE
  5
A1
330
9F
100
AcDbEntity
  8
0
  6
K5LT_THIN
 62
     0
370
    18
100
AcDbLine
 10
0.0
 20
0.0
 30
0.0
 11
2.0
 21
-0.0000000000000002
 31
0.0
  0
LINE
  5
A2
330
9F
100
AcDbEntity
  8
Эскиз
  6
K5LT_THIN
 62
     0
370
    18
100
AcDbLine
 10
0.0
 20
0.0
 30
0.0
 11
-1.0
 21
0.0
 31
0.0
  0
ENDBLK
  5
A4
330
9F
100
AcDbEntity
  8
0
100
AcDbBlockEnd
  0
ENDSEC
  0
SECTION
  2
ENTITIES
  0
IMAGE
  5
A8
330
1F
100
AcDbEntity
  8
0
 92
      140
310
8C00000001000000840000000600000005000000A3B6885F30E87040F035BA3E784435400000000000000000C06A44F361C9684084CA9C8EA88E6B400000000000000000B97DFDE37CAA51C019AF1EA779BC5E40000000000000000084D421E72CE0F83F72586C66B90F53C00000000000000000A3B6885F30E87040F035BA
310
3E784435400000000000000000
100
AcDbRasterImage
 90
        0
 10
270.5118098583573
 20
21.26745979353104
 30
0.0
 11
-0.01442929131651922
 21
0.03979832487949881
 31
0.0
 12
-0.03979832487949881
 22
-0.01442929131651923
 32
0.0
 13
5005.0
 23
6758.0
340
A6
 70
    15
280
     0
281
    50
282
    50
283
     0
360
A9
 71
     1
 91
        2
 14
-0.5
 24
-0.5
 14
5004.5
 24
6757.5
  0
IMAGE
  5
AB
330
1F
100
AcDbEntity
  8
0
 92
      140
310
8C000000010000008400000006000000050000004B8512E03FCF82404439147CCB0655C000000000000000008B697AB98741854034E33EF260E95C40000000000000000034E137FBB2C97940F4F63B7A81906B400000000000000000B418684823E57440BD4593185AC3344000000000000000004B8512E03FCF8240443914
310
7CCB0655C00000000000000000
100
AcDbRasterImage
 90
        0
 10
601.9061891028335
 20
-84.10616971945734
 30
0.0
 11
0.01544693816840096
 21
0.03941450510069495
 31
0.0
 12
-0.03941450510069496
 22
0.01544693816840094
 32
0.0
 13
5068.0
 23
6789.0
340
AA
 70
    15
280
     0
281
    50
282
    50
283
     0
360
AC
 71
     1
 91
        2
 14
-0.5
 24
-0.5
 14
5067.5
 24
6788.5
  0
IMAGE
  5
AE
330
1F
100
AcDbEntity
  8
0
 92
      140
310
8C0000000100000084000000060000000500000094A27C3694AC8C4010000000000028C00000000000000000ACA8BEF73503904010000000000028C00000000000000000ACA8BEF7350390406ECB5A1D13086240000000000000000094A27C3694AC8C406ECB5A1D13086240000000000000000094A27C3694AC8C40100000
310
00000028C00000000000000000
100
AcDbRasterImage
 90
        0
 10
917.5723695504298
 20
-12.00000000000003
 30
0.0
 11
0.04233333333333333
 21
0.0
 31
0.0
 12
2.592083448924032E-18
 22
0.04233333333333333
 32
0.0
 13
2533.0
 23
3691.0
340
AD
 70
    15
280
     0
281
    50
282
    50
283
     0
360
AF
 71
     1
 91
        2
 14
-0.5
 24
-0.5
 14
2532.5
 24
3690.5
  0
CIRCLE
  5
B1
330
1F
100
AcDbEntity
  8
Эскиз
  6
K5LT_BASIC
 62
     5
420
      255
370
    60
100
AcDbCircle
 10
153.9879744519316
 20
156.844630661822
 30
0.0
 40
1.6
  0
CIRCLE
  5
B2
330
1F
100
AcDbEntity
  8
Эскиз
  6
K5LT_BASIC
 62
     5
420
      255
370
    60
100
AcDbCircle
 10
150.4295222815202
 20
81.3106297069262
 30
0.0
 40
1.6
  0
CIRCLE
  5
B3
330
1F
100
AcDbEntity
  8
Эскиз
  6
K5LT_BASIC
 62
     5
420
      255
370
    60
100
AcDbCircle
 10
174.4319818087661
 20
80.13293923513402
 30
0.0
 40
1.6
  0
CIRCLE
  5
B4
330
1F
100
AcDbEntity
  8
Эскиз
  6
K5LT_BASIC
 62
     5
420
      255
370
    60
100
AcDbCircle
 10
178.1377337784111
 20
155.6597128652692
 30
0.0
 40
1.6
  0
CIRCLE
  5
B5
330
1F
100
AcDbEntity
  8
Эскиз
  6
K5LT_BASIC
 62
     5
420
      255
370
    60
100
AcDbCircle
 10
124.2235140438001
 20
153.2206395657383
 30
0.0
 40
1.4
  0
CIRCLE
  5
B6
330
1F
100
AcDbEntity
  8
Эскиз
  6
K5LT_BASIC
 62
     5
420
      255
370
    60
100
AcDbCircle
 10
104.5091357122814
 20
149.6205633618163
 30
0.0
 40
1.4
  0
CIRCLE
  5
B7
330
1F
100
AcDbEntity
  8
Эскиз
  6
K5LT_BASIC
 62
     5
420
      255
370
    60
100
AcDbCircle
 10
52.16189222616265
 20
143.5063990514122
 30
0.0
 40
1.6
  0
CIRCLE
  5
B8
330
1F
100
AcDbEntity
  8
Эскиз
  6
K5LT_BASIC
 62
     5
420
      255
370
    60
100
AcDbCircle
 10
84.14773442408259
 20
141.9728399618486
 30
0.0
 40
1.6
  0
CIRCLE
  5
B9
330
1F
100
AcDbEntity
  8
Эскиз
  6
K5LT_BASIC
 62
     5
420
      255
370
    60
100
AcDbCircle
 10
55.37934050307467
 20
127.8009842543226
 30
0.0
 40
1.6
  0
CIRCLE
  5
BA
330
1F
100
AcDbEntity
  8
Эскиз
  6
K5LT_BASIC
 62
     5
420
      255
370
    60
100
AcDbCircle
 10
58.22674864209611
 20
124.1904781035338
 30
0.0
 40
1.6
  0
CIRCLE
  5
BB
330
1F
100
AcDbEntity
  8
Эскиз
  6
K5LT_BASIC
 62
     5
420
      255
370
    60
100
AcDbCircle
 10
23.23917587582145
 20
125.8600193809409
 30
0.0
 40
1.6
  0
CIRCLE
  5
BC
330
1F
100
AcDbEntity
  8
Эскиз
  6
K5LT_BASIC
 62
     5
420
      255
370
    60
100
AcDbCircle
 10
21.9465439682246
 20
97.80228299874139
 30
0.0
 40
1.6
  0
CIRCLE
  5
BD
330
1F
100
AcDbEntity
  8
Эскиз
  6
K5LT_BASIC
 62
     5
420
      255
370
    60
100
AcDbCircle
 10
56.87327479633407
 20
96.22795209869452
 30
0.0
 40
1.6
  0
CIRCLE
  5
BE
330
1F
100
AcDbEntity
  8
Эскиз
  6
K5LT_BASIC
 62
     5
420
      255
370
    60
100
AcDbCircle
 10
63.57806876153168
 20
109.853703260821
 30
0.0
 40
1.6
  0
CIRCLE
  5
BF
330
1F
100
AcDbEntity
  8
Эскиз
  6
K5LT_BASIC
 62
     5
420
      255
370
    60
100
AcDbCircle
 10
78.88182239696329
 20
117.3927925089326
 30
0.0
 40
1.6
  0
CIRCLE
  5
C0
330
1F
100
AcDbEntity
  8
Эскиз
  6
K5LT_BASIC
 62
     5
420
      255
370
    60
100
AcDbCircle
 10
98.99745864143006
 20
116.5122276690716
 30
0.0
 40
1.6
  0
CIRCLE
  5
C1
330
1F
100
AcDbEntity
  8
Эскиз
  6
K5LT_BASIC
 62
     5
420
      255
370
    60
100
AcDbCircle
 10
82.36288995877166
 20
126.5289544992174
 30
0.0
 40
1.6
  0
CIRCLE
  5
C2
330
1F
100
AcDbEntity
  8
Эскиз
  6
K5LT_BASIC
 62
     5
420
      255
370
    60
100
AcDbCircle
 10
106.4128294043024
 20
83.47032670558004
 30
0.0
 40
1.6
  0
CIRCLE
  5
C3
330
1F
100
AcDbEntity
  8
Эскиз
  6
K5LT_BASIC
 62
     5
420
      255
370
    60
100
AcDbCircle
 10
58.580750002445
 20
25.55426082715434
 30
0.0
 40
1.6
  0
CIRCLE
  5
C4
330
1F
100
AcDbEntity
  8
Эскиз
  6
K5LT_BASIC
 62
     5
420
      255
370
    60
100
AcDbCircle
 10
80.89020652091284
 20
18.92668716946415
 30
0.0
 40
1.6
  0
CIRCLE
  5
C5
330
1F
100
AcDbEntity
  8
Эскиз
  6
K5LT_BASIC
 62
     5
420
      255
370
    60
100
AcDbCircle
 10
110.1908806477992
 20
24.53531326210918
 30
0.0
 40
1.6
  0
CIRCLE
  5
C6
330
1F
100
AcDbEntity
  8
Эскиз
  6
K5LT_BASIC
 62
     5
420
      255
370
    60
100
AcDbCircle
 10
172.1644022203511
 20
21.50492591689036
 30
0.0
 40
1.6
  0
CIRCLE
  5
C7
330
1F
100
AcDbEntity
  8
Эскиз
  6
K5LT_BASIC
 62
     5
420
      255
370
    60
100
AcDbCircle
 10
187.2883914682849
 20
22.84766289245943
 30
0.0
 40
1.6
  0
CIRCLE
  5
C8
330
1F
100
AcDbEntity
  8
Эскиз
  6
K5LT_BASIC
 62
     5
420
      255
370
    60
100
AcDbCircle
 10
262.1203632149687
 20
79.12315342861157
 30
0.0
 40
1.6
  0
CIRCLE
  5
C9
330
1F
100
AcDbEntity
  8
Эскиз
  6
K5LT_BASIC
 62
     5
420
      255
370
    60
100
AcDbCircle
 10
254.5342133596754
 20
79.9696765884297
 30
0.0
 40
1.6
  0
CIRCLE
  5
CA
330
1F
100
AcDbEntity
  8
Эскиз
  6
K5LT_BASIC
 62
     5
420
      255
370
    60
100
AcDbCircle
 10
316.6763142307927
 20
53.98395379326578
 30
0.0
 40
1.6
  0
CIRCLE
  5
CB
330
1F
100
AcDbEntity
  8
Эскиз
  6
K5LT_BASIC
 62
     5
420
      255
370
    60
100
AcDbCircle
 10
251.5998774903309
 20
19.77100132413014
 30
0.0
 40
1.6
  0
CIRCLE
  5
CC
330
1F
100
AcDbEntity
  8
Эскиз
  6
K5LT_BASIC
 62
     5
420
      255
370
    60
100
AcDbCircle
 10
259.6014755015063
 20
18.95833902612011
 30
0.0
 40
1.6
  0
CIRCLE
  5
CD
330
1F
100
AcDbEntity
  8
Эскиз
  6
K5LT_BASIC
 62
     5
420
      255
370
    60
100
AcDbCircle
 10
243.1230682968956
 20
157.0090298823051
 30
0.0
 40
1.6
  0
CIRCLE
  5
CE
330
1F
100
AcDbEntity
  8
Эскиз
  6
K5LT_BASIC
 62
     5
420
      255
370
    60
100
AcDbCircle
 10
158.1983727189062
 20
150.2550255654865
 30
0.0
 40
2.25
  0
CIRCLE
  5
CF
330
1F
100
AcDbEntity
  8
Эскиз
  6
K5LT_BASIC
 62
     5
420
      255
370
    60
100
AcDbCircle
 10
92.2029582954292
 20
78.10994884848208
 30
0.0
 40
2.75
  0
CIRCLE
  5
D0
330
1F
100
AcDbEntity
  8
Эскиз
  6
K5LT_BASIC
 62
     5
420
      255
370
    60
100
AcDbCircle
 10
91.79423486620004
 20
65.96292204448596
 30
0.0
 40
2.75
  0
CIRCLE
  5
D1
330
1F
100
AcDbEntity
  8
Эскиз
  6
K5LT_BASIC
 62
     5
420
      255
370
    60
100
AcDbCircle
 10
98.86587871387997
 20
127.982218980769
 30
0.0
 40
1.15
  0
CIRCLE
  5
D2
330
1F
100
AcDbEntity
  8
Эскиз
  6
K5LT_BASIC
 62
     5
420
      255
370
    60
100
AcDbCircle
 10
97.16259418021943
 20
137.7553527728296
 30
0.0
 40
1.15
  0
CIRCLE
  5
D3
330
1F
100
AcDbEntity
  8
Эскиз
  6
K5LT_BASIC
 62
     5
420
      255
370
    60
100
AcDbCircle
 10
145.504857637748
 20
146.0456151142848
 30
0.0
 40
1.15
  0
CIRCLE
  5
D4
330
1F
100
AcDbEntity
  8
Эскиз
  6
K5LT_BASIC
 62
     5
420
      255
370
    60
100
AcDbCircle
 10
147.1506141577847
 20
136.2223553114965
 30
0.0
 40
1.15
  0
CIRCLE
  5
D5
330
1F
100
AcDbEntity
  8
Эскиз
  6
K5LT_BASIC
 62
     5
420
      255
370
    60
100
AcDbCircle
 10
188.2851085734864
 20
151.6579484521659
 30
0.0
 40
1.15
  0
CIRCLE
  5
D6
330
1F
100
AcDbEntity
  8
Эскиз
  6
K5LT_BASIC
 62
     5
420
      255
370
    60
100
AcDbCircle
 10
187.8786945275975
 20
141.6137156037708
 30
0.0
 40
1.15
  0
CIRCLE
  5
D7
330
1F
100
AcDbEntity
  8
Эскиз
  6
K5LT_BASIC
 62
     5
420
      255
370
    60
100
AcDbCircle
 10
237.299857712784
 20
149.3225111818099
 30
0.0
 40
1.15
  0
CIRCLE
  5
D8
330
1F
100
AcDbEntity
  8
Эскиз
  6
K5LT_BASIC
 62
     5
420
      255
370
    60
100
AcDbCircle
 10
236.7918401756098
 20
139.3073083060895
 30
0.0
 40
1.15
  0
CIRCLE
  5
D9
330
1F
100
AcDbEntity
  8
Эскиз
  6
K5LT_BASIC
 62
     5
420
      255
370
    60
100
AcDbCircle
 10
40.16080789259627
 20
111.1650386596727
 30
0.0
 40
10.0
  0
CIRCLE
  5
DA
330
1F
100
AcDbEntity
  8
Эскиз
  6
K5LT_BASIC
 62
     5
420
      255
370
    60
100
AcDbCircle
 10
75.23383734717345
 20
42.68453205910814
 30
0.0
 40
11.0
  0
LWPOLYLINE
  5
DB
330
1F
100
AcDbEntity
  8
Эскиз
  6
K5LT_BASIC
 62
     5
420
      255
100
AcDbPolyline
 90
       41
 70
     1
 43
0.6
 10
192.870497743274
 20
15.47147268267609
 10
62.99340750291663
 20
15.47147268267609
 42
-0.318831488152616
 10
53.55334178096204
 20
22.17220622402526
 10
29.86084013656083
 20
89.96266069132679
 42
0.3053809347490304
 10
26.28083966429358
 20
92.63814795538623
 10
20.69881869093382
 20
92.91203209239343
 42
-0.4136843840858308
 10
16.89930295172521
 20
97.09603186272514
 10
18.31852668993641
 20
127.1298747551405
 42
-0.4147429387453511
 10
22.51009406217423
 20
130.9362626798483
 10
28.06785886513305
 20
130.6635686817405
 42
0.1993362280594256
 10
30.95513163370694
 20
131.6995075819751
 10
49.01164930833111
 20
148.1207179955012
 42
-0.1993362280594246
 10
51.89892207690497
 20
149.1566568957359
 10
76.57759072233569
 20
147.9457879476079
 42
0.0536382169608352
 10
77.21831806998534
 20
147.9830867776607
 10
154.3957209906779
 20
160.8596858977261
 42
-0.0536382169608352
 10
155.0364483383275
 20
160.8969847277789
 10
183.7193470359022
 20
159.4896465980689
 42
0.2011527729642105
 10
185.9002573638821
 20
160.2807557120253
 10
187.9408980434944
 20
162.1627973750874
 42
-0.2011527729642061
 10
190.1218083714743
 20
162.9539064890439
 10
242.9164592530674
 20
160.3635153987363
 42
-0.4142135623730973
 10
246.7156272840726
 20
156.1722957347019
 10
244.7472690854877
 20
116.0552708217307
 42
-0.0957736907333053
 10
244.296110943884
 20
114.2116054780925
 10
236.434594496569
 20
97.11312014284712
 42
0.4142135623730878
 10
237.2199181936936
 20
94.99102997258235
 10
323.9006079186221
 20
55.13710989859366
 10
322.3054946498269
 20
51.62837396649853
 42
-0.1440924230688823
 10
320.4590217212311
 20
49.4926844440813
 10
268.8132314925959
 20
16.26651761660541
 42
-0.1439021516477759
 10
266.1079860522843
 20
15.4714726826761
 10
242.4743932586147
 20
15.47147268267609
 10
244.3247149600184
 20
53.18280075578144
 42
0.075677640999977
 10
244.2020757933057
 20
54.38048531865552
 10
240.5050079134225
 20
68.67387373615695
 42
0.3282464758388855
 10
236.8284790491299
 20
71.6674088373172
 10
203.9284208278218
 20
73.28166362002649
 42
0.3292146807855947
 10
199.9717125917502
 20
70.64928587867644
 10
195.094764306987
 20
57.19137795363365
 42
0.0747989138140634
 10
194.8602528790242
 20
56.02458766397856
  0
LWPOLYLINE
  5
DC
330
1F
100
AcDbEntity
  8
Эскиз
  6
K5LT_BASIC
 62
     5
420
      255
100
AcDbPolyline
 90
        8
 70
     1
 43
0.6
 10
115.9547011775182
 20
30.73211417638308
 10
172.840528621825
 20
27.94098783847056
 42
0.4142135623730982
 10
177.0317482858594
 20
31.74015586947573
 10
177.2454123754982
 20
36.09483461301457
 42
0.4142135623730999
 10
175.7257451630961
 20
37.77132247862832
 10
114.0456851017655
 20
40.79767979635835
 42
0.4142135623730949
 10
112.3691972361518
 20
39.2780125839563
 10
112.155533146513
 20
34.92333384041743
 42
0.4142135623730927
  0
LWPOLYLINE
  5
DD
330
1F
100
AcDbEntity
  8
Эскиз
  6
K5LT_BASIC
 62
     5
420
      255
100
AcDbPolyline
 90
        8
 70
     1
 43
0.6
 10
127.707112981415
 20
45.21756830297099
 10
162.4160966374054
 20
43.51455785561033
 42
0.4142135623731029
 10
164.0925845030192
 20
45.0342250680124
 10
164.6237857610531
 20
55.86061536509871
 42
0.4142135623730975
 10
163.1041185486511
 20
57.53710323071245
 10
128.3951348926606
 20
59.24011367807312
 42
0.4142135623730975
 10
126.7186470270469
 20
57.72044646567105
 10
126.187445769013
 20
46.89405616858474
 42
0.4142135623730951
  0
LWPOLYLINE
  5
DE
330
1F
100
AcDbEntity
  8
Эскиз
  6
K5LT_BASIC
 62
     5
420
      255
100
AcDbPolyline
 90
        8
 70
     1
 43
0.6
 10
115.232833291643
 20
64.99289667453753
 10
176.9128933529736
 20
61.96653935680748
 42
0.4142135623730924
 10
178.5893812185874
 20
63.48620656920956
 10
178.7910169667426
 20
67.59573619542434
 42
0.4142135623730961
 10
174.9918489357374
 20
71.78695585945869
 10
118.1060214914305
 20
74.57808219737123
 42
0.4142135623730942
 10
113.9148018273962
 20
70.77891416636604
 10
113.713166079241
 20
66.66938454015127
 42
0.4142135623730925
  0
LWPOLYLINE
  5
DF
330
1F
100
AcDbEntity
  8
Эскиз
  6
K5LT_BASIC
 62
     5
420
      255
100
AcDbPolyline
 90
        8
 70
     1
 43
0.6
 10
86.88872678550794
 20
63.89624924429123
 10
87.60765359190768
 20
78.54866597599901
 42
0.4142135623730999
 10
86.0879863795056
 20
80.22515384161277
 10
50.33480248979211
 20
81.97939839956541
 42
0.4142135623730975
 10
48.65831462417835
 20
80.45973118716334
 10
47.93938781777868
 20
65.80731445545555
 42
0.4142135623730874
 10
49.4590550301807
 20
64.13082658984182
 10
85.21223891989422
 20
62.37658203188917
 42
0.4142135623730954
  0
LWPOLYLINE
  5
E0
330
1F
100
AcDbEntity
  8
Эскиз
  6
K5LT_BASIC
 62
     5
420
      255
100
AcDbPolyline
 90
        4
 70
     1
 43
0.6
 10
204.8709503484458
 20
76.554495760273
 10
206.2468472178766
 20
76.48698681888897
 42
0.9999999999999821
 10
206.4036678710883
 20
79.68314189690477
 10
205.0277710016576
 20
79.7506508382888
 42
0.9999999999999999
  0
LWPOLYLINE
  5
E1
330
1F
100
AcDbEntity
  8
Эскиз
  6
K5LT_BASIC
 62
     5
420
      255
100
AcDbPolyline
 90
        4
 70
     1
 43
0.6
 10
236.0741304423284
 20
75.02349899535946
 10
234.7406483858858
 20
75.0889268366353
 42
-0.9999999999999823
 10
234.8974690390975
 20
78.2850819146511
 10
236.23095109554
 20
78.21965407337527
 42
-0.9999999999999997
  0
LWPOLYLINE
  5
E2
330
1F
100
AcDbEntity
  8
Эскиз
  6
K5LT_BASIC
 62
     5
420
      255
100
AcDbPolyline
 90
        6
 70
     1
 43
0.6
 10
260.7317715911208
 20
62.18687841732338
 10
259.36161656097
 20
34.26180689390364
 42
0.6247406406719019
 10
267.2356162093014
 20
29.92953133129706
 10
291.7587625732418
 20
47.20935454140952
 42
0.5781548439795706
 10
290.9674528485916
 20
55.83943200116892
 10
267.814461514802
 20
66.48468031447618
 42
0.5310545932839097
  0
LWPOLYLINE
  5
E3
330
1F
100
AcDbEntity
  8
Эскиз
  6
K5LT_BASIC
 62
     5
420
      255
100
AcDbPolyline
 90
       12
 70
     1
 43
0.6
 10
220.5592468097659
 20
109.8174001662148
 10
196.4079204738476
 20
126.2313888698114
 42
-0.2614486932535648
 10
195.7092049852887
 20
127.6331086470795
 10
195.7814966821367
 20
129.1064826526544
 42
-0.414213562373095
 10
197.4579845477505
 20
130.6261498650565
 10
231.1471679529212
 20
128.9731763331694
 42
-0.4142135623730872
 10
232.6668351653233
 20
127.2966884675557
 10
232.0349754978416
 20
114.4187833992163
 42
-0.0988612024612444
 10
231.8823191909205
 20
113.8110760523632
 10
230.1209650913278
 20
110.1004900825547
 42
-0.3029467944523035
 10
228.5971335326352
 20
109.1885302170058
 10
221.380198533609
 20
109.5426320778692
 42
-0.1378376579880116
  0
LWPOLYLINE
  5
E4
330
1F
100
AcDbEntity
  8
Эскиз
  6
K5LT_BASIC
 62
     5
420
      255
100
AcDbPolyline
 90
        8
 70
     1
 43
0.6
 10
231.4011146654926
 20
134.1488535051989
 10
192.6882474539619
 20
136.0483161331443
 42
-0.4142135623730848
 10
191.1685802415599
 20
137.724803998758
 10
192.0314038296797
 20
155.3099749320695
 42
-0.4142135623731001
 10
193.7078916952935
 20
156.8296421444716
 10
232.420758906824
 20
154.9301795165262
 42
-0.4142135623730999
 10
233.9404261192261
 20
153.2536916509124
 10
233.0776025311063
 20
135.668520717601
 42
-0.414213562373095
  0
LWPOLYLINE
  5
E5
330
1F
100
AcDbEntity
  8
Эскиз
  6
K5LT_BASIC
 62
     5
420
      255
100
AcDbPolyline
 90
        8
 70
     1
 43
0.6
 10
143.1172975085055
 20
129.8623332882443
 42
0.4142135623730996
 10
144.432171412678
 20
131.7038290433647
 10
141.5054506466032
 20
149.2454722749016
 42
0.4142135623731001
 10
139.6639548914828
 20
150.5603461790741
 10
101.2833381605522
 20
144.1567643413577
 42
0.4142135623730948
 10
99.9684642563798
 20
142.3152685862373
 10
102.8951850224545
 20
124.7736253547004
 42
0.4142135623730956
 10
104.7366807775749
 20
123.458751450528
  0
LWPOLYLINE
  5
E6
330
1F
100
AcDbEntity
  8
Эскиз
  6
K5LT_BASIC
 62
     5
420
      255
100
AcDbPolyline
 90
       40
 70
     1
 43
0.6
 10
150.7913802980784
 20
86.60275923023191
 10
108.3014599325521
 20
91.32678788998092
 42
-0.3962556081205507
 10
106.8801810207797
 20
92.99540016772617
 10
106.8923687265284
 20
93.24379728137198
 42
0.414213562373095
 10
104.0429927032745
 20
96.38721202939776
 10
79.8101280466955
 20
97.57620742288599
 42
-0.414213562373095
 10
76.96075202344161
 20
100.7196221709118
 10
77.4977470903487
 20
111.6640958407661
 42
-0.414213562373095
 10
80.64116183837447
 20
114.51347186402
 10
81.80732817533516
 20
114.4562534367999
 42
0.414213562373097
 10
83.90293800735236
 20
116.3558374523025
 10
84.05413342355612
 20
119.4373448135814
 42
-0.414213562373093
 10
86.1497432555733
 20
121.336928829084
 10
92.16307655281
 20
121.0418821768929
 42
-0.4142135623730973
 10
94.06266056831262
 20
118.9462723448757
 10
93.91146515210886
 20
115.8647649835968
 42
0.4142135623730929
 10
95.81104916761143
 20
113.7691551515796
 10
118.1197272244312
 20
112.6745707588438
 42
0.0603023294673068
 10
118.599172141891
 20
112.7088771736988
 10
152.1542860499884
 20
119.2280318575982
 42
-0.060302329467314
 10
152.6337309674482
 20
119.2623382724532
 10
173.2820872902209
 20
118.2492182431539
 42
-0.1876815590350844
 10
174.6063558610657
 20
117.6577206737083
 10
179.3036385092241
 20
112.9063792467426
 42
0.187681559035092
 10
180.6279070800689
 20
112.3148816772971
 10
200.4316022519444
 20
111.3432052920616
 42
-0.414213562373091
 10
202.331186267447
 20
109.2475954600444
 10
202.1076774338041
 20
104.6922714067457
 42
0.3965858496487052
 10
203.8865453739878
 20
102.6062550699844
 10
215.5375929931383
 20
101.3243549651879
 42
-0.396585849648697
 10
217.316460933322
 20
99.23833862842655
 10
216.770497150856
 20
88.11107394737805
 42
-0.3943177736246101
 10
214.8116516437922
 20
86.20946230895063
 10
174.6905892612881
 20
85.43194234438998
 42
0.1355202068868195
 10
172.6495348677981
 20
84.82558512616563
 10
170.9439944187043
 20
83.76062780446698
 42
-0.1529771859010437
 10
169.7867028970059
 20
83.45947681827964
 10
155.3891709456419
 20
84.16589759891664
 42
-0.161973050221329
 10
154.2120437456605
 20
84.62270975368345
 10
152.8996639464669
 20
85.70882389036952
 42
0.1461817866450431
  0
CIRCLE
  5
E7
330
1F
100
AcDbEntity
  8
Эскиз
  6
K5LT_BASIC
 62
     5
420
      255
370
    60
100
AcDbCircle
 10
176.3532649297396
 20
321.1163450502722
 30
0.0
 40
1.6
  0
CIRCLE
  5
E8
330
1F
100
AcDbEntity
  8
Эскиз
  6
K5LT_BASIC
 62
     5
420
      255
370
    60
100
AcDbCircle
 10
179.9117171001509
 20
245.5823440953765
 30
0.0
 40
1.6
  0
CIRCLE
  5
E9
330
1F
100
AcDbEntity
  8
Эскиз
  6
K5LT_BASIC
 62
     5
420
      255
370
    60
100
AcDbCircle
 10
155.9092575729051
 20
244.4046536235843
 30
0.0
 40
1.6
  0
CIRCLE
  5
EA
330
1F
100
AcDbEntity
  8
Эскиз
  6
K5LT_BASIC
 62
     5
420
      255
370
    60
100
AcDbCircle
 10
152.2035056032599
 20
319.9314272537194
 30
0.0
 40
1.6
  0
CIRCLE
  5
EB
330
1F
100
AcDbEntity
  8
Эскиз
  6
K5LT_BASIC
 62
     5
420
      255
370
    60
100
AcDbCircle
 10
206.117725337871
 20
317.4923539541886
 30
0.0
 40
1.4
  0
CIRCLE
  5
EC
330
1F
100
AcDbEntity
  8
Эскиз
  6
K5LT_BASIC
 62
     5
420
      255
370
    60
100
AcDbCircle
 10
225.8321036693897
 20
313.8922777502665
 30
0.0
 40
1.4
  0
CIRCLE
  5
ED
330
1F
100
AcDbEntity
  8
Эскиз
  6
K5LT_BASIC
 62
     5
420
      255
370
    60
100
AcDbCircle
 10
278.1793471555085
 20
307.7781134398624
 30
0.0
 40
1.6
  0
CIRCLE
  5
EE
330
1F
100
AcDbEntity
  8
Эскиз
  6
K5LT_BASIC
 62
     5
420
      255
370
    60
100
AcDbCircle
 10
246.1935049575885
 20
306.2445543502989
 30
0.0
 40
1.6
  0
CIRCLE
  5
EF
330
1F
100
AcDbEntity
  8
Эскиз
  6
K5LT_BASIC
 62
     5
420
      255
370
    60
100
AcDbCircle
 10
274.9618988785965
 20
292.0726986427728
 30
0.0
 40
1.6
  0
CIRCLE
  5
F0
330
1F
100
AcDbEntity
  8
Эскиз
  6
K5LT_BASIC
 62
     5
420
      255
370
    60
100
AcDbCircle
 10
272.114490739575
 20
288.4621924919841
 30
0.0
 40
1.6
  0
CIRCLE
  5
F1
330
1F
100
AcDbEntity
  8
Эскиз
  6
K5LT_BASIC
 62
     5
420
      255
370
    60
100
AcDbCircle
 10
307.1020635058497
 20
290.1317337693911
 30
0.0
 40
1.6
  0
CIRCLE
  5
F2
330
1F
100
AcDbEntity
  8
Эскиз
  6
K5LT_BASIC
 62
     5
420
      255
370
    60
100
AcDbCircle
 10
308.3946954134465
 20
262.0739973871916
 30
0.0
 40
1.6
  0
CIRCLE
  5
F3
330
1F
100
AcDbEntity
  8
Эскиз
  6
K5LT_BASIC
 62
     5
420
      255
370
    60
100
AcDbCircle
 10
273.467964585337
 20
260.4996664871447
 30
0.0
 40
1.6
  0
CIRCLE
  5
F4
330
1F
100
AcDbEntity
  8
Эскиз
  6
K5LT_BASIC
 62
     5
420
      255
370
    60
100
AcDbCircle
 10
266.7631706201394
 20
274.1254176492712
 30
0.0
 40
1.6
  0
CIRCLE
  5
F5
330
1F
100
AcDbEntity
  8
Эскиз
  6
K5LT_BASIC
 62
     5
420
      255
370
    60
100
AcDbCircle
 10
251.4594169847078
 20
281.6645068973828
 30
0.0
 40
1.6
  0
CIRCLE
  5
F6
330
1F
100
AcDbEntity
  8
Эскиз
  6
K5LT_BASIC
 62
     5
420
      255
370
    60
100
AcDbCircle
 10
231.3437807402411
 20
280.7839420575219
 30
0.0
 40
1.6
  0
CIRCLE
  5
F7
330
1F
100
AcDbEntity
  8
Эскиз
  6
K5LT_BASIC
 62
     5
420
      255
370
    60
100
AcDbCircle
 10
247.9783494228994
 20
290.8006688876677
 30
0.0
 40
1.6
  0
CIRCLE
  5
F8
330
1F
100
AcDbEntity
  8
Эскиз
  6
K5LT_BASIC
 62
     5
420
      255
370
    60
100
AcDbCircle
 10
223.9284099773687
 20
247.7420410940303
 30
0.0
 40
1.6
  0
CIRCLE
  5
F9
330
1F
100
AcDbEntity
  8
Эскиз
  6
K5LT_BASIC
 62
     5
420
      255
370
    60
100
AcDbCircle
 10
271.7604893792261
 20
189.8259752156046
 30
0.0
 40
1.6
  0
CIRCLE
  5
FA
330
1F
100
AcDbEntity
  8
Эскиз
  6
K5LT_BASIC
 62
     5
420
      255
370
    60
100
AcDbCircle
 10
249.4510328607583
 20
183.1984015579144
 30
0.0
 40
1.6
  0
CIRCLE
  5
FB
330
1F
100
AcDbEntity
  8
Эскиз
  6
K5LT_BASIC
 62
     5
420
      255
370
    60
100
AcDbCircle
 10
220.1503587338719
 20
188.8070276505594
 30
0.0
 40
1.6
  0
CIRCLE
  5
FC
330
1F
100
AcDbEntity
  8
Эскиз
  6
K5LT_BASIC
 62
     5
420
      255
370
    60
100
AcDbCircle
 10
158.17683716132
 20
185.7766403053406
 30
0.0
 40
1.6
  0
CIRCLE
  5
FD
330
1F
100
AcDbEntity
  8
Эскиз
  6
K5LT_BASIC
 62
     5
420
      255
370
    60
100
AcDbCircle
 10
143.0528479133862
 20
187.1193772809097
 30
0.0
 40
1.6
  0
CIRCLE
  5
FE
330
1F
100
AcDbEntity
  8
Эскиз
  6
K5LT_BASIC
 62
     5
420
      255
370
    60
100
AcDbCircle
 10
68.2208761667024
 20
243.3948678170618
 30
0.0
 40
1.6
  0
CIRCLE
  5
FF
330
1F
100
AcDbEntity
  8
Эскиз
  6
K5LT_BASIC
 62
     5
420
      255
370
    60
100
AcDbCircle
 10
75.80702602199574
 20
244.24139097688
 30
0.0
 40
1.6
  0
CIRCLE
  5
100
330
1F
100
AcDbEntity
  8
Эскиз
  6
K5LT_BASIC
 62
     5
420
      255
370
    60
100
AcDbCircle
 10
13.66492515087839
 20
218.255668181716
 30
0.0
 40
1.6
  0
CIRCLE
  5
101
330
1F
100
AcDbEntity
  8
Эскиз
  6
K5LT_BASIC
 62
     5
420
      255
370
    60
100
AcDbCircle
 10
78.74136189134015
 20
184.0427157125804
 30
0.0
 40
1.6
  0
CIRCLE
  5
102
330
1F
100
AcDbEntity
  8
Эскиз
  6
K5LT_BASIC
 62
     5
420
      255
370
    60
100
AcDbCircle
 10
70.73976388016479
 20
183.2300534145704
 30
0.0
 40
1.6
  0
CIRCLE
  5
103
330
1F
100
AcDbEntity
  8
Эскиз
  6
K5LT_BASIC
 62
     5
420
      255
370
    60
100
AcDbCircle
 10
87.21817108477558
 20
321.2807442707553
 30
0.0
 40
1.6
  0
CIRCLE
  5
104
330
1F
100
AcDbEntity
  8
Эскиз
  6
K5LT_BASIC
 62
     5
420
      255
370
    60
100
AcDbCircle
 10
172.1428666627648
 20
314.5267399539368
 30
0.0
 40
2.25
  0
CIRCLE
  5
105
330
1F
100
AcDbEntity
  8
Эскиз
  6
K5LT_BASIC
 62
     5
420
      255
370
    60
100
AcDbCircle
 10
238.1382810862419
 20
242.3816632369324
 30
0.0
 40
2.75
  0
CIRCLE
  5
106
330
1F
100
AcDbEntity
  8
Эскиз
  6
K5LT_BASIC
 62
     5
420
      255
370
    60
100
AcDbCircle
 10
238.5470045154711
 20
230.2346364329362
 30
0.0
 40
2.75
  0
CIRCLE
  5
107
330
1F
100
AcDbEntity
  8
Эскиз
  6
K5LT_BASIC
 62
     5
420
      255
370
    60
100
AcDbCircle
 10
231.4753606677912
 20
292.2539333692192
 30
0.0
 40
1.15
  0
CIRCLE
  5
108
330
1F
100
AcDbEntity
  8
Эскиз
  6
K5LT_BASIC
 62
     5
420
      255
370
    60
100
AcDbCircle
 10
233.1786452014517
 20
302.0270671612798
 30
0.0
 40
1.15
  0
CIRCLE
  5
109
330
1F
100
AcDbEntity
  8
Эскиз
  6
K5LT_BASIC
 62
     5
420
      255
370
    60
100
AcDbCircle
 10
184.8363817439231
 20
310.317329502735
 30
0.0
 40
1.15
  0
CIRCLE
  5
10A
330
1F
100
AcDbEntity
  8
Эскиз
  6
K5LT_BASIC
 62
     5
420
      255
370
    60
100
AcDbCircle
 10
183.1906252238864
 20
300.4940696999467
 30
0.0
 40
1.15
  0
CIRCLE
  5
10B
330
1F
100
AcDbEntity
  8
Эскиз
  6
K5LT_BASIC
 62
     5
420
      255
370
    60
100
AcDbCircle
 10
142.0561308081848
 20
315.9296628406161
 30
0.0
 40
1.15
  0
CIRCLE
  5
10C
330
1F
100
AcDbEntity
  8
Эскиз
  6
K5LT_BASIC
 62
     5
420
      255
370
    60
100
AcDbCircle
 10
142.4625448540736
 20
305.885429992221
 30
0.0
 40
1.15
  0
CIRCLE
  5
10D
330
1F
100
AcDbEntity
  8
Эскиз
  6
K5LT_BASIC
 62
     5
420
      255
370
    60
100
AcDbCircle
 10
93.04138166888708
 20
313.5942255702602
 30
0.0
 40
1.15
  0
CIRCLE
  5
10E
330
1F
100
AcDbEntity
  8
Эскиз
  6
K5LT_BASIC
 62
     5
420
      255
370
    60
100
AcDbCircle
 10
93.54939920606125
 20
303.5790226945398
 30
0.0
 40
1.15
  0
CIRCLE
  5
10F
330
1F
100
AcDbEntity
  8
Эскиз
  6
K5LT_BASIC
 62
     5
420
      255
370
    60
100
AcDbCircle
 10
290.1804314890749
 20
275.4367530481229
 30
0.0
 40
10.0
  0
CIRCLE
  5
110
330
1F
100
AcDbEntity
  8
Эскиз
  6
K5LT_BASIC
 62
     5
420
      255
370
    60
100
AcDbCircle
 10
255.1074020344977
 20
206.9562464475584
 30
0.0
 40
11.0
  0
LWPOLYLINE
  5
111
330
1F
100
AcDbEntity
  8
Эскиз
  6
K5LT_BASIC
 62
     5
420
      255
100
AcDbPolyline
 90
       41
 70
     1
 43
0.6
 10
137.470741638397
 20
179.7431870711264
 10
267.3478318787545
 20
179.7431870711263
 42
0.3188314881526159
 10
276.7878976007091
 20
186.4439206124755
 10
300.4803992451103
 20
254.2343750797771
 42
-0.3053809347490302
 10
304.0603997173775
 20
256.9098623438365
 10
309.6424206907373
 20
257.1837464808436
 42
0.4136843840858351
 10
313.4419364299459
 20
261.3677462511754
 10
312.0227126917347
 20
291.4015891435907
 42
0.4147429387453508
 10
307.8311453194969
 20
295.2079770682985
 10
302.2733805165381
 20
294.9352830701907
 42
-0.1993362280594212
 10
299.3861077479642
 20
295.9712219704253
 10
281.32959007334
 20
312.3924323839515
 42
0.1993362280594261
 10
278.4423173047662
 20
313.4283712841861
 10
253.7636486593354
 20
312.2175023360582
 42
-0.0536382169608354
 10
253.1229213116858
 20
312.254801166111
 10
175.9455183909932
 20
325.1314002861763
 42
0.0536382169608354
 10
175.3047910433436
 20
325.1686991162292
 10
146.621892345769
 20
323.7613609865192
 42
-0.2011527729642093
 10
144.440982017789
 20
324.5524701004756
 10
142.4003413381767
 20
326.4345117635377
 42
0.2011527729642045
 10
140.2194310101968
 20
327.2256208774942
 10
87.42478012860374
 20
324.6352297871865
 42
0.4142135623730989
 10
83.62561209759849
 20
320.4440101231521
 10
85.59397029618343
 20
280.326985210181
 42
0.0957736907333028
 10
86.04512843778713
 20
278.4833198665428
 10
93.90664488510214
 20
261.3848345312974
 42
-0.4142135623730951
 10
93.12132118797751
 20
259.2627443610326
 10
6.440631463048931
 20
219.4088242870439
 10
8.035744731844279
 20
215.9000883549488
 42
0.1440924230688793
 10
9.882217660440006
 20
213.7643988325316
 10
61.52800788907519
 20
180.5382320050557
 42
0.1439021516477786
 10
64.2332533293868
 20
179.7431870711264
 10
87.8668461230564
 20
179.7431870711264
 10
86.01652442165278
 20
217.4545151442317
 42
-0.0756776409999769
 10
86.13916358836536
 20
218.6521997071058
 10
89.83623146824858
 20
232.9455881246072
 42
-0.3282464758388899
 10
93.51276033254123
 20
235.9391232257674
 10
126.4128185538493
 20
237.5533780084768
 42
-0.3292146807855955
 10
130.3695267899209
 20
234.9210002671267
 10
135.2464750746841
 20
221.4630923420839
 42
-0.0747989138140639
 10
135.4809865026469
 20
220.2963020524288
  0
LWPOLYLINE
  5
112
330
1F
100
AcDbEntity
  8
Эскиз
  6
K5LT_BASIC
 62
     5
420
      255
100
AcDbPolyline
 90
        8
 70
     1
 43
0.6
 10
214.3865382041529
 20
195.0038285648333
 10
157.5007107598461
 20
192.2127022269208
 42
-0.4142135623730995
 10
153.3094910958117
 20
196.011870257926
 10
153.0958270061729
 20
200.3665490014648
 42
-0.4142135623731106
 10
154.615494218575
 20
202.0430368670786
 10
216.2955542799056
 20
205.0693941848086
 42
-0.414213562373095
 10
217.9720421455193
 20
203.5497269724065
 10
218.1857062351581
 20
199.1950482288677
 42
-0.4142135623730929
  0
LWPOLYLINE
  5
113
330
1F
100
AcDbEntity
  8
Эскиз
  6
K5LT_BASIC
 62
     5
420
      255
100
AcDbPolyline
 90
        8
 70
     1
 43
0.6
 10
202.6341264002561
 20
209.4892826914212
 10
167.9251427442657
 20
207.7862722440606
 42
-0.4142135623731055
 10
166.2486548786519
 20
209.3059394564626
 10
165.7174536206179
 20
220.1323297535489
 42
-0.4142135623731106
 10
167.2371208330201
 20
221.8088176191627
 10
201.9461044890104
 20
223.5118280665233
 42
-0.414213562373095
 10
203.6225923546242
 20
221.9921608541213
 10
204.1537936126582
 20
211.165770557035
 42
-0.4142135623730951
  0
LWPOLYLINE
  5
114
330
1F
100
AcDbEntity
  8
Эскиз
  6
K5LT_BASIC
 62
     5
420
      255
100
AcDbPolyline
 90
        8
 70
     1
 43
0.6
 10
215.1084060900281
 20
229.2646110629878
 10
153.4283460286974
 20
226.2382537452578
 42
-0.4142135623730849
 10
151.7518581630837
 20
227.7579209576598
 10
151.5502224149285
 20
231.8674505838746
 42
-0.4142135623730989
 10
155.3493904459338
 20
236.0586702479089
 10
212.2352178902406
 20
238.8497965858215
 42
-0.4142135623730929
 10
216.4264375542749
 20
235.0506285548163
 10
216.6280733024301
 20
230.9410989286015
 42
-0.4142135623730951
  0
LWPOLYLINE
  5
115
330
1F
100
AcDbEntity
  8
Эскиз
  6
K5LT_BASIC
 62
     5
420
      255
100
AcDbPolyline
 90
        8
 70
     1
 43
0.6
 10
243.4525125961632
 20
228.1679636327415
 10
242.7335857897634
 20
242.8203803644493
 42
-0.4142135623731001
 10
244.2532530021655
 20
244.496868230063
 10
280.006436891879
 20
246.2511127880157
 42
-0.4142135623731005
 10
281.6829247574927
 20
244.7314455756136
 10
282.4018515638925
 20
230.0790288439058
 42
-0.4142135623730896
 10
280.8821843514904
 20
228.4025409782921
 10
245.1290004617769
 20
226.6482964203394
 42
-0.414213562373095
  0
LWPOLYLINE
  5
116
330
1F
100
AcDbEntity
  8
Эскиз
  6
K5LT_BASIC
 62
     5
420
      255
100
AcDbPolyline
 90
        4
 70
     1
 43
0.6
 10
125.4702890332253
 20
240.8262101487232
 10
124.0943921637945
 20
240.7587012073392
 42
-0.9999999999999648
 10
123.9375715105829
 20
243.954856285355
 10
125.3134683800135
 20
244.0223652267391
 42
-0.9999999999999999
  0
LWPOLYLINE
  5
117
330
1F
100
AcDbEntity
  8
Эскиз
  6
K5LT_BASIC
 62
     5
420
      255
100
AcDbPolyline
 90
        4
 70
     1
 43
0.6
 10
94.26710893934273
 20
239.2952133838097
 10
95.6005909957853
 20
239.3606412250856
 42
0.9999999999999999
 10
95.44377034257354
 20
242.5567963031014
 10
94.1102882861311
 20
242.4913684618255
 42
1.000000000000036
  0
LWPOLYLINE
  5
118
330
1F
100
AcDbEntity
  8
Эскиз
  6
K5LT_BASIC
 62
     5
420
      255
100
AcDbPolyline
 90
        6
 70
     1
 43
0.6
 10
69.6094677905503
 20
226.4585928057737
 10
70.97962282070115
 20
198.5335212823539
 42
-0.6247406406719015
 10
63.10562317236975
 20
194.2012457197473
 10
38.58247680842931
 20
211.4810689298598
 42
-0.578154843979568
 10
39.37378653307951
 20
220.1111463896192
 10
62.52677786686912
 20
230.7563947029264
 42
-0.5310545932839129
  0
LWPOLYLINE
  5
119
330
1F
100
AcDbEntity
  8
Эскиз
  6
K5LT_BASIC
 62
     5
420
      255
100
AcDbPolyline
 90
       12
 70
     1
 43
0.6
 10
109.7819925719052
 20
274.0891145546651
 10
133.9333189078235
 20
290.5031032582617
 42
0.2614486932535611
 10
134.6320343963824
 20
291.9048230355298
 10
134.5597426995343
 20
293.3781970411047
 42
0.4142135623730844
 10
132.8832548339207
 20
294.8978642535068
 10
99.19407142874991
 20
293.2448907216197
 42
0.4142135623730848
 10
97.67440421634785
 20
291.5684028560059
 10
98.30626388382953
 20
278.6904977876666
 42
0.0988612024612446
 10
98.45892019075063
 20
278.0827904408135
 10
100.2202742903432
 20
274.372204471005
 42
0.3029467944523165
 10
101.7441058490359
 20
273.4602446054561
 10
108.9610408480621
 20
273.8143464663194
 42
0.1378376579880145
  0
LWPOLYLINE
  5
11A
330
1F
100
AcDbEntity
  8
Эскиз
  6
K5LT_BASIC
 62
     5
420
      255
100
AcDbPolyline
 90
        8
 70
     1
 43
0.6
 10
98.9401247161785
 20
298.4205678936491
 10
137.6529919277092
 20
300.3200305215945
 42
0.414213562373085
 10
139.1726591401113
 20
301.9965183872083
 10
138.3098355519914
 20
319.5816893205198
 42
0.4142135623730948
 10
136.6333476863776
 20
321.1013565329218
 10
97.92048047484707
 20
319.2018939049765
 42
0.4142135623730848
 10
96.40081326244501
 20
317.5254060393627
 10
97.26363685056484
 20
299.9402351060512
 42
0.4142135623730845
  0
LWPOLYLINE
  5
11B
330
1F
100
AcDbEntity
  8
Эскиз
  6
K5LT_BASIC
 62
     5
420
      255
100
AcDbPolyline
 90
        8
 70
     1
 43
0.6
 10
187.2239418731656
 20
294.1340476766946
 42
-0.4142135623731164
 10
185.9090679689931
 20
295.975543431815
 10
188.8357887350679
 20
313.5171866633519
 42
-0.4142135623731062
 10
190.6772844901883
 20
314.8320605675243
 10
229.0579012211188
 20
308.4284787298079
 42
-0.4142135623730995
 10
230.3727751252913
 20
306.5869829746875
 10
227.4460543592166
 20
289.0453397431506
 42
-0.4142135623730906
 10
225.6045586040962
 20
287.7304658389782
  0
LWPOLYLINE
  5
11C
330
1F
100
AcDbEntity
  8
Эскиз
  6
K5LT_BASIC
 62
     5
420
      255
100
AcDbPolyline
 90
       40
 70
     1
 43
0.6
 10
179.5498590835928
 20
250.8744736186821
 10
222.039779449119
 20
255.5985022784312
 42
0.3962556081205481
 10
223.4610583608913
 20
257.2671145561764
 10
223.4488706551428
 20
257.5155116698222
 42
-0.4142135623730947
 10
226.2982466783966
 20
260.658926417848
 10
250.5311113349756
 20
261.8479218113363
 42
0.4142135623730948
 10
253.3804873582295
 20
264.991336559362
 10
252.8434922913224
 20
275.9358102292164
 42
0.4142135623730951
 10
249.7000775432966
 20
278.7851862524702
 10
248.5339112063359
 20
278.7279678252501
 42
-0.4142135623730954
 10
246.4383013743187
 20
280.6275518407527
 10
246.287105958115
 20
283.7090592020317
 42
0.4142135623730908
 10
244.1914961260978
 20
285.6086432175343
 10
238.1781628288611
 20
285.3135965653432
 42
0.4142135623730991
 10
236.2785788133585
 20
283.217986733326
 10
236.4297742295622
 20
280.1364793720471
 42
-0.414213562373095
 10
234.5301902140597
 20
278.0408695400298
 10
212.2215121572399
 20
276.946285147294
 42
-0.0603023294673071
 10
211.7420672397801
 20
276.9805915621491
 10
178.1869533316827
 20
283.4997462460484
 42
0.0603023294673138
 10
177.707508414223
 20
283.5340526609035
 10
157.0591520914502
 20
282.5209326316041
 42
0.187681559035084
 10
155.7348835206054
 20
281.9294350621586
 10
151.037600872447
 20
277.1780936351928
 42
-0.1876815590350839
 10
149.7133323016022
 20
276.5865960657474
 10
129.9096371297267
 20
275.6149196805118
 42
0.4142135623730783
 10
128.0100531142241
 20
273.5193098484947
 10
128.233561947867
 20
268.963985795196
 42
-0.396585849648716
 10
126.4546940076833
 20
266.8779694584346
 10
114.8036463885328
 20
265.5960693536381
 42
0.3965858496486985
 10
113.0247784483491
 20
263.5100530168768
 10
113.570742230815
 20
252.3827883358283
 42
0.3943177736246084
 10
115.5295877378788
 20
250.4811766974009
 10
155.650650120383
 20
249.7036567328402
 42
-0.1355202068868195
 10
157.691704513873
 20
249.0972995146159
 10
159.3972449629669
 20
248.0323421929172
 42
0.1529771859010363
 10
160.5545364846652
 20
247.7311912067299
 10
174.9520684360292
 20
248.4376119873669
 42
0.1619730502213364
 10
176.1291956360105
 20
248.8944241421337
 10
177.4415754352042
 20
249.9805382788198
 42
-0.1461817866450449
  0
CIRCLE
  5
11D
330
1F
100
AcDbEntity
  8
Эскиз
  6
K5LT_BASIC
 62
     5
420
      255
370
    60
100
AcDbCircle
 10
82.7102078120156
 20
433.6902082575904
 30
0.0
 40
1.75
  0
CIRCLE
  5
11E
330
1F
100
AcDbEntity
  8
Эскиз
  6
K5LT_BASIC
 62
     5
420
      255
370
    60
100
AcDbCircle
 10
82.7102078120156
 20
373.7502588624236
 30
0.0
 40
1.75
  0
LWPOLYLINE
  5
11F
330
1F
100
AcDbEntity
  8
Эскиз
  6
K5LT_BASIC
 62
     5
420
      255
100
AcDbPolyline
 90
        8
 70
     1
 43
0.6
 10
70.7301144844696
 20
379.5207348013066
 10
94.6903011395616
 20
379.5207348013066
 42
0.414213562373095
 10
97.1903011395616
 20
382.0207348013066
 10
97.1903011395616
 20
425.1280642075524
 42
0.414213562373095
 10
94.6903011395616
 20
427.6280642075524
 10
70.7301144844696
 20
427.6280642075524
 42
0.414213562373095
 10
68.2301144844696
 20
425.1280642075524
 10
68.2301144844696
 20
382.0207348013066
 42
0.414213562373095
  0
LWPOLYLINE
  5
120
330
1F
100
AcDbEntity
  8
Эскиз
  6
K5LT_BASIC
 62
     5
420
      255
100
AcDbPolyline
 90
        8
 70
     1
 43
0.6
 10
52.42529976423009
 20
355.4714726826761
 10
112.4784882768698
 20
355.4714726826761
 42
0.414213562373095
 10
114.9784882768698
 20
357.9714726826761
 10
114.9784882768698
 20
471.088124339316
 42
0.414213562373095
 10
112.4784882768698
 20
473.588124339316
 10
52.42529976423009
 20
473.588124339316
 42
0.414213562373095
 10
49.92529976423009
 20
471.088124339316
 10
49.92529976423009
 20
357.9714726826761
 42
0.414213562373095
  0
ENDSEC
  0
SECTION
  2
OBJECTS
  0
DICTIONARY
  5
C
330
0
100
AcDbDictionary
281
     1
  3
ACAD_GROUP
350
D
  3
ACAD_IMAGE_DICT
350
A5
  3
ACAD_IMAGE_VARS
350
A7
  3
ACAD_LAYOUT
350
1A
  3
ACAD_MATERIAL
350
3B
  3
ACAD_MLEADERSTYLE
350
166
  3
ACAD_MLINESTYLE
350
17
  3
ACAD_PLOTSETTINGS
350
19
  3
ACAD_PLOTSTYLENAME
350
E
  3
ACAD_SCALELIST
350
121
  3
ACAD_TABLESTYLE
350
165
  3
ACAD_VISUALSTYLE
350
2A
  3
AcDbVariableDictionary
350
143
  0
IMAGEDEF_REACTOR
  5
A9
330
A8
100
AcDbRasterImageDefReactor
 90
        2
330
A8
  0
IMAGEDEF_REACTOR
  5
AC
330
AB
100
AcDbRasterImageDefReactor
 90
        2
330
AB
  0
IMAGEDEF_REACTOR
  5
AF
330
AE
100
AcDbRasterImageDefReactor
 90
        2
330
AE
  0
DICTIONARY
  5
D
102
{ACAD_REACTORS
330
C
102
}
330
C
100
AcDbDictionary
281
     1
  0
DICTIONARY
  5
A5
102
{ACAD_REACTORS
330
C
102
}
330
C
100
AcDbDictionary
281
     1
  3
Площадка.JPG
350
AD
  3
Рама 1.JPG
350
AA
  3
Рама 2.JPG
350
A6
  0
RASTERVARIABLES
  5
A7
102
{ACAD_REACTORS
330
C
102
}
330
C
100
AcDbRasterVariables
 90
        0
 70
     1
 71
     1
 72
     1
  0
DICTIONARY
  5
1A
102
{ACAD_REACTORS
330
C
102
}
330
C
100
AcDbDictionary
281
     1
  3
Layout1
350
1E
  3
Layout2
350
26
  3
Model
350
22
  0
DICTIONARY
  5
3B
102
{ACAD_REACTORS
330
C
102
}
330
C
100
AcDbDictionary
281
     1
  3
ByBlock
350
3D
  3
ByLayer
350
3C
  3
Global
350
3E
  0
DICTIONARY
  5
166
102
{ACAD_REACTORS
330
C
102
}
330
C
100
AcDbDictionary
281
     1
  0
DICTIONARY
  5
17
102
{ACAD_REACTORS
330
C
102
}
330
C
100
AcDbDictionary
281
     1
  3
Standard
350
18
  0
DICTIONARY
  5
19
102
{ACAD_REACTORS
330
C
102
}
330
C
100
AcDbDictionary
281
     1
  0
ACDBDICTIONARYWDFLT
  5
E
102
{ACAD_REACTORS
330
C
102
}
330
C
100
AcDbDictionary
281
     1
  3
Normal
350
F
100
AcDbDictionaryWithDefault
340
F
  0
DICTIONARY
  5
121
102
{ACAD_REACTORS
330
C
102
}
330
C
100
AcDbDictionary
281
     1
  3
A0
350
122
  3
A1
350
123
  3
A2
350
124
  3
A3
350
125
  3
A4
350
126
  3
A5
350
127
  3
A6
350
128
  3
A7
350
129
  3
A8
350
12A
  3
A9
350
12B
  3
B0
350
12C
  3
B1
350
12D
  3
B2
350
12E
  3
B3
350
12F
  3
B4
350
130
  3
B5
350
131
  3
B6
350
132
  3
B7
350
133
  3
B8
350
134
  3
B9
350
135
  3
C0
350
136
  3
C1
350
137
  3
C2
350
138
  3
C3
350
139
  3
C4
350
13A
  3
C5
350
13B
  3
C6
350
13C
  3
C7
350
13D
  3
C8
350
13E
  3
C9
350
13F
  3
D0
350
140
  3
D1
350
141
  3
D2
350
142
  0
DICTIONARY
  5
165
102
{ACAD_REACTORS
330
C
102
}
330
C
100
AcDbDictionary
281
     1
  0
DICTIONARY
  5
2A
102
{ACAD_REACTORS
330
C
102
}
330
C
100
AcDbDictionary
281
     1
  3
2dWireframe
350
2F
  3
3D Hidden
350
31
  3
3dWireframe
350
30
  3
Basic
350
32
  3
Brighten
350
36
  3
ColorChange
350
3A
  3
Conceptual
350
34
  3
Dim
350
35
  3
Facepattern
350
39
  3
Flat
350
2B
  3
FlatWithEdges
350
2C
  3
Gouraud
350
2D
  3
GouraudWithEdges
350
2E
  3
Linepattern
350
38
  3
Realistic
350
33
  3
Thicken
350
37
  0
DICTIONARY
  5
143
102
{ACAD_REACTORS
330
C
102
}
330
C
100
AcDbDictionary
281
     1
  3
CANNOSCALE
350
144
  0
IMAGEDEF
  5
AD
102
{ACAD_REACTORS
330
A5
330
AF
102
}
330
A5
100
AcDbRasterImageDef
 90
        0
  1
\\Svetlana\shareddocs\Атом 6ХВ\Площадка.JPG
 10
2533.0
 20
3691.0
 11
0.04233333333333333
 21
0.04233333333333333
280
     1
281
     5
  0
IMAGEDEF
  5
AA
102
{ACAD_REACTORS
330
A5
330
AC
102
}
330
A5
100
AcDbRasterImageDef
 90
        0
  1
\\Svetlana\shareddocs\Атом 6ХВ\Рама 1.JPG
 10
5068.0
 20
6789.0
 11
0.04233333333333333
 21
0.04233333333333333
280
     1
281
     5
  0
IMAGEDEF
  5
A6
102
{ACAD_REACTORS
330
A5
330
A9
102
}
330
A5
100
AcDbRasterImageDef
 90
        0
  1
\\Svetlana\shareddocs\Атом 6ХВ\Рама 2.JPG
 10
5005.0
 20
6758.0
 11
0.04233333333333333
 21
0.04233333333333333
280
     1
281
     5
  0
LAYOUT
  5
1E
102
{ACAD_REACTORS
330
1A
102
}
330
1A
100
AcDbPlotSettings
  1

  2
none_device
  4

  6

 40
0.0
 41
0.0
 42
0.0
 43
0.0
 44
0.0
 45
0.0
 46
0.0
 47
0.0
 48
0.0
 49
0.0
140
0.0
141
0.0
142
1.0
143
1.0
 70
   688
 72
     0
 73
     0
 74
     5
  7

 75
    16
 76
     0
 77
     2
 78
   300
147
1.0
148
0.0
149
0.0
100
AcDbLayout
  1
Layout1
 70
     1
 71
     1
 10
0.0
 20
0.0
 11
420.0
 21
297.0
 12
0.0
 22
0.0
 32
0.0
 14
1.000000000000000E+20
 24
1.000000000000000E+20
 34
1.000000000000000E+20
 15
-1.000000000000000E+20
 25
-1.000000000000000E+20
 35
-1.000000000000000E+20
146
0.0
 13
0.0
 23
0.0
 33
0.0
 16
1.0
 26
0.0
 36
0.0
 17
0.0
 27
1.0
 37
0.0
 76
     0
330
1B
  0
LAYOUT
  5
26
102
{ACAD_REACTORS
330
1A
102
}
330
1A
100
AcDbPlotSettings
  1

  2
none_device
  4

  6

 40
0.0
 41
0.0
 42
0.0
 43
0.0
 44
0.0
 45
0.0
 46
0.0
 47
0.0
 48
0.0
 49
0.0
140
0.0
141
0.0
142
1.0
143
1.0
 70
   688
 72
     0
 73
     0
 74
     5
  7

 75
    16
 76
     0
 77
     2
 78
   300
147
1.0
148
0.0
149
0.0
100
AcDbLayout
  1
Layout2
 70
     1
 71
     2
 10
0.0
 20
0.0
 11
0.0
 21
0.0
 12
0.0
 22
0.0
 32
0.0
 14
0.0
 24
0.0
 34
0.0
 15
0.0
 25
0.0
 35
0.0
146
0.0
 13
0.0
 23
0.0
 33
0.0
 16
1.0
 26
0.0
 36
0.0
 17
0.0
 27
1.0
 37
0.0
 76
     0
330
23
  0
LAYOUT
  5
22
102
{ACAD_REACTORS
330
1A
102
}
330
1A
100
AcDbPlotSettings
  1

  2
none_device
  4

  6

 40
0.0
 41
0.0
 42
0.0
 43
0.0
 44
0.0
 45
0.0
 46
0.0
 47
0.0
 48
0.0
 49
0.0
140
0.0
141
0.0
142
1.0
143
1.0
 70
  1712
 72
     0
 73
     0
 74
     0
  7

 75
     0
 76
     0
 77
     2
 78
   300
147
1.0
148
0.0
149
0.0
100
AcDbLayout
  1
Model
 70
     1
 71
     0
 10
0.0
 20
0.0
 11
420.0
 21
297.0
 12
0.0
 22
0.0
 32
0.0
 14
1.000000000000000E+20
 24
1.000000000000000E+20
 34
1.000000000000000E+20
 15
-1.000000000000000E+20
 25
-1.000000000000000E+20
 35
-1.000000000000000E+20
146
0.0
 13
0.0
 23
0.0
 33
0.0
 16
1.0
 26
0.0
 36
0.0
 17
0.0
 27
1.0
 37
0.0
 76
     0
330
1F
331
29
  0
MATERIAL
  5
3D
102
{ACAD_REACTORS
330
3B
102
}
330
3B
100
AcDbMaterial
  1
ByBlock
 72
     1
 94
      127
  0
MATERIAL
  5
3C
102
{ACAD_REACTORS
330
3B
102
}
330
3B
100
AcDbMaterial
  1
ByLayer
 72
     1
 94
      127
  0
MATERIAL
  5
3E
102
{ACAD_REACTORS
330
3B
102
}
330
3B
100
AcDbMaterial
  1
Global
 72
     1
 94
      127
  0
MLINESTYLE
  5
18
102
{ACAD_REACTORS
330
17
102
}
330
17
100
AcDbMlineStyle
  2
Standard
 70
     0
  3

 62
   256
 51
90.0
 52
90.0
 71
     2
 49
0.5
 62
   256
  6
BYLAYER
 49
-0.5
 62
   256
  6
BYLAYER
  0
ACDBPLACEHOLDER
  5
F
102
{ACAD_REACTORS
330
E
102
}
330
E
  0
SCALE
  5
122
102
{ACAD_REACTORS
330
121
102
}
330
121
100
AcDbScale
 70
     0
300
1:1
140
1.0
141
1.0
290
     1
  0
SCALE
  5
123
102
{ACAD_REACTORS
330
121
102
}
330
121
100
AcDbScale
 70
     0
300
1:2
140
1.0
141
2.0
290
     0
  0
SCALE
  5
124
102
{ACAD_REACTORS
330
121
102
}
330
121
100
AcDbScale
 70
     0
300
1:4
140
1.0
141
4.0
290
     0
  0
SCALE
  5
125
102
{ACAD_REACTORS
330
121
102
}
330
121
100
AcDbScale
 70
     0
300
1:5
140
1.0
141
5.0
290
     0
  0
SCALE
  5
126
102
{ACAD_REACTORS
330
121
102
}
330
121
100
AcDbScale
 70
     0
300
1:8
140
1.0
141
8.0
290
     0
  0
SCALE
  5
127
102
{ACAD_REACTORS
330
121
102
}
330
121
100
AcDbScale
 70
     0
300
1:10
140
1.0
141
10.0
290
     0
  0
SCALE
  5
128
102
{ACAD_REACTORS
330
121
102
}
330
121
100
AcDbScale
 70
     0
300
1:16
140
1.0
141
16.0
290
     0
  0
SCALE
  5
129
102
{ACAD_REACTORS
330
121
102
}
330
121
100
AcDbScale
 70
     0
300
1:20
140
1.0
141
20.0
290
     0
  0
SCALE
  5
12A
102
{ACAD_REACTORS
330
121
102
}
330
121
100
AcDbScale
 70
     0
300
1:30
140
1.0
141
30.0
290
     0
  0
SCALE
  5
12B
102
{ACAD_REACTORS
330
121
102
}
330
121
100
AcDbScale
 70
     0
300
1:40
140
1.0
141
40.0
290
     0
  0
SCALE
  5
12C
102
{ACAD_REACTORS
330
121
102
}
330
121
100
AcDbScale
 70
     0
300
1:50
140
1.0
141
50.0
290
     0
  0
SCALE
  5
12D
102
{ACAD_REACTORS
330
121
102
}
330
121
100
AcDbScale
 70
     0
300
1:100
140
1.0
141
100.0
290
     0
  0
SCALE
  5
12E
102
{ACAD_REACTORS
330
121
102
}
330
121
100
AcDbScale
 70
     0
300
2:1
140
2.0
141
1.0
290
     0
  0
SCALE
  5
12F
102
{ACAD_REACTORS
330
121
102
}
330
121
100
AcDbScale
 70
     0
300
4:1
140
4.0
141
1.0
290
     0
  0
SCALE
  5
130
102
{ACAD_REACTORS
330
121
102
}
330
121
100
AcDbScale
 70
     0
300
8:1
140
8.0
141
1.0
290
     0
  0
SCALE
  5
131
102
{ACAD_REACTORS
330
121
102
}
330
121
100
AcDbScale
 70
     0
300
10:1
140
10.0
141
1.0
290
     0
  0
SCALE
  5
132
102
{ACAD_REACTORS
330
121
102
}
330
121
100
AcDbScale
 70
     0
300
100:1
140
100.0
141
1.0
290
     0
  0
SCALE
  5
133
102
{ACAD_REACTORS
330
121
102
}
330
121
100
AcDbScale
 70
     0
300
1/128" = 1'-0"
140
0.0078125
141
12.0
290
     0
  0
SCALE
  5
134
102
{ACAD_REACTORS
330
121
102
}
330
121
100
AcDbScale
 70
     0
300
1/64" = 1'-0"
140
0.015625
141
12.0
290
     0
  0
SCALE
  5
135
102
{ACAD_REACTORS
330
121
102
}
330
121
100
AcDbScale
 70
     0
300
1/32" = 1'-0"
140
0.03125
141
12.0
290
     0
  0
SCALE
  5
136
102
{ACAD_REACTORS
330
121
102
}
330
121
100
AcDbScale
 70
     0
300
1/16" = 1'-0"
140
0.0625
141
12.0
290
     0
  0
SCALE
  5
137
102
{ACAD_REACTORS
330
121
102
}
330
121
100
AcDbScale
 70
     0
300
3/32" = 1'-0"
140
0.09375
141
12.0
290
     0
  0
SCALE
  5
138
102
{ACAD_REACTORS
330
121
102
}
330
121
100
AcDbScale
 70
     0
300
1/8" = 1'-0"
140
0.125
141
12.0
290
     0
  0
SCALE
  5
139
102
{ACAD_REACTORS
330
121
102
}
330
121
100
AcDbScale
 70
     0
300
3/16" = 1'-0"
140
0.1875
141
12.0
290
     0
  0
SCALE
  5
13A
102
{ACAD_REACTORS
330
121
102
}
330
121
100
AcDbScale
 70
     0
300
1/4" = 1'-0"
140
0.25
141
12.0
290
     0
  0
SCALE
  5
13B
102
{ACAD_REACTORS
330
121
102
}
330
121
100
AcDbScale
 70
     0
300
3/8" = 1'-0"
140
0.375
141
12.0
290
     0
  0
SCALE
  5
13C
102
{ACAD_REACTORS
330
121
102
}
330
121
100
AcDbScale
 70
     0
300
1/2" = 1'-0"
140
0.5
141
12.0
290
     0
  0
SCALE
  5
13D
102
{ACAD_REACTORS
330
121
102
}
330
121
100
AcDbScale
 70
     0
300
3/4" = 1'-0"
140
0.75
141
12.0
290
     0
  0
SCALE
  5
13E
102
{ACAD_REACTORS
330
121
102
}
330
121
100
AcDbScale
 70
     0
300
1" = 1'-0"
140
1.0
141
12.0
290
     0
  0
SCALE
  5
13F
102
{ACAD_REACTORS
330
121
102
}
330
121
100
AcDbScale
 70
     0
300
1-1/2" = 1'-0"
140
1.5
141
12.0
290
     0
  0
SCALE
  5
140
102
{ACAD_REACTORS
330
121
102
}
330
121
100
AcDbScale
 70
     0
300
3" = 1'-0"
140
3.0
141
12.0
290
     0
  0
SCALE
  5
141
102
{ACAD_REACTORS
330
121
102
}
330
121
100
AcDbScale
 70
     0
300
6" = 1'-0"
140
6.0
141
12.0
290
     0
  0
SCALE
  5
142
102
{ACAD_REACTORS
330
121
102
}
330
121
100
AcDbScale
 70
     0
300
1'-0" = 1'-0"
140
12.0
141
12.0
290
     0
  0
VISUALSTYLE
  5
2F
102
{ACAD_REACTORS
330
2A
102
}
102
{ACAD_XDICTIONARY
360
14D
102
}
330
2A
100
AcDbVisualStyle
  2
2dWireframe
 70
     4
 71
     0
 72
     2
 73
     0
 90
        0
 40
-0.6
 41
-30.0
 62
     5
 63
     7
421
 16777215
 74
     1
 91
        4
 64
     7
 65
   257
 75
     1
175
     1
 42
1.0
 92
        0
 66
   257
 43
1.0
 76
     1
 77
     6
 78
     2
 67
     7
 79
     5
170
     0
171
     0
290
     0
174
     0
 93
        1
 44
0.0
173
     0
291
     0
 45
0.0
  0
VISUALSTYLE
  5
31
102
{ACAD_REACTORS
330
2A
102
}
102
{ACAD_XDICTIONARY
360
151
102
}
330
2A
100
AcDbVisualStyle
  2
3D Hidden
 70
     6
 71
     1
 72
     2
 73
     2
 90
        0
 40
-0.6
 41
-30.0
 62
     5
 63
     7
421
 16777215
 74
     2
 91
        2
 64
     7
 65
   257
 75
     2
175
     1
 42
40.0
 92
        0
 66
   257
 43
1.0
 76
     1
 77
     6
 78
     2
 67
     7
 79
     3
170
     0
171
     0
290
     0
174
     0
 93
        1
 44
0.0
173
     0
291
     0
 45
0.0
  0
VISUALSTYLE
  5
30
102
{ACAD_REACTORS
330
2A
102
}
102
{ACAD_XDICTIONARY
360
14F
102
}
330
2A
100
AcDbVisualStyle
  2
3dWireframe
 70
     5
 71
     0
 72
     2
 73
     0
 90
        0
 40
-0.6
 41
-30.0
 62
     5
 63
     7
421
 16777215
 74
     1
 91
        4
 64
     7
 65
   257
 75
     1
175
     1
 42
1.0
 92
        0
 66
   257
 43
1.0
 76
     1
 77
     6
 78
     2
 67
     7
 79
     5
170
     0
171
     0
290
     0
174
     0
 93
        1
 44
0.0
173
     0
291
     0
 45
0.0
  0
VISUALSTYLE
  5
32
102
{ACAD_REACTORS
330
2A
102
}
102
{ACAD_XDICTIONARY
360
153
102
}
330
2A
100
AcDbVisualStyle
  2
Basic
 70
     7
 71
     1
 72
     0
 73
     1
 90
        0
 40
-0.6
 41
-30.0
 62
     5
 63
     7
421
 16777215
 74
     0
 91
        4
 64
     7
 65
   257
 75
     1
175
     1
 42
1.0
 92
        8
 66
     7
 43
1.0
 76
     1
 77
     6
 78
     2
 67
     7
 79
     5
170
     0
171
     0
290
     0
174
     0
 93
        1
 44
0.0
173
     0
291
     1
 45
0.0
  0
VISUALSTYLE
  5
36
102
{ACAD_REACTORS
330
2A
102
}
102
{ACAD_XDICTIONARY
360
15B
102
}
330
2A
100
AcDbVisualStyle
  2
Brighten
 70
    12
 71
     2
 72
     2
 73
     0
 90
        0
 40
-0.6
 41
-30.0
 62
     5
 63
     7
421
 16777215
 74
     1
 91
        4
 64
     7
 65
   257
 75
     1
175
     1
 42
1.0
 92
        8
 66
     7
 43
1.0
 76
     1
 77
     6
 78
     2
 67
     7
 79
     5
170
     0
171
     0
290
     0
174
     0
 93
        1
 44
50.0
173
     0
291
     1
 45
0.0
  0
VISUALSTYLE
  5
3A
102
{ACAD_REACTORS
330
2A
102
}
102
{ACAD_XDICTIONARY
360
163
102
}
330
2A
100
AcDbVisualStyle
  2
ColorChange
 70
    16
 71
     2
 72
     2
 73
     3
 90
        0
 40
-0.6
 41
-30.0
 62
     5
 63
     8
421
  8421504
 74
     1
 91
        4
 64
     7
 65
   257
 75
     1
175
     1
 42
1.0
 92
        8
 66
     8
424
  8421504
 43
1.0
 76
     1
 77
     6
 78
     2
 67
     7
 79
     5
170
     0
171
     0
290
     0
174
     0
 93
        1
 44
0.0
173
     0
291
     1
 45
0.0
  0
VISUALSTYLE
  5
34
102
{ACAD_REACTORS
330
2A
102
}
102
{ACAD_XDICTIONARY
360
157
102
}
330
2A
100
AcDbVisualStyle
  2
Conceptual
 70
     9
 71
     3
 72
     2
 73
     0
 90
        0
 40
-0.6
 41
-30.0
 62
     5
 63
     7
421
 16777215
 74
     2
 91
        2
 64
     7
 65
   257
 75
     1
175
     1
 42
40.0
 92
        8
 66
     7
 43
1.0
 76
     1
 77
     6
 78
     2
 67
     7
 79
     3
170
     0
171
     0
290
     0
174
     0
 93
        1
 44
0.0
173
     0
291
     0
 45
0.0
  0
VISUALSTYLE
  5
35
102
{ACAD_REACTORS
330
2A
102
}
102
{ACAD_XDICTIONARY
360
159
102
}
330
2A
100
AcDbVisualStyle
  2
Dim
 70
    11
 71
     2
 72
     2
 73
     0
 90
        0
 40
-0.6
 41
-30.0
 62
     5
 63
     7
421
 16777215
 74
     1
 91
        4
 64
     7
 65
   257
 75
     1
175
     1
 42
1.0
 92
        8
 66
     7
 43
1.0
 76
     1
 77
     6
 78
     2
 67
     7
 79
     5
170
     0
171
     0
290
     0
174
     0
 93
        1
 44
-50.0
173
     0
291
     1
 45
0.0
  0
VISUALSTYLE
  5
39
102
{ACAD_REACTORS
330
2A
102
}
102
{ACAD_XDICTIONARY
360
161
102
}
330
2A
100
AcDbVisualStyle
  2
Facepattern
 70
    15
 71
     2
 72
     2
 73
     0
 90
        0
 40
-0.6
 41
-30.0
 62
     5
 63
     7
421
 16777215
 74
     1
 91
        4
 64
     7
 65
   257
 75
     1
175
     1
 42
1.0
 92
        8
 66
     7
 43
1.0
 76
     1
 77
     6
 78
     2
 67
     7
 79
     5
170
     0
171
     0
290
     0
174
     0
 93
        1
 44
0.0
173
     0
291
     1
 45
0.0
  0
VISUALSTYLE
  5
2B
102
{ACAD_REACTORS
330
2A
102
}
102
{ACAD_XDICTIONARY
360
145
102
}
330
2A
100
AcDbVisualStyle
  2
Flat
 70
     0
 71
     2
 72
     1
 73
     1
 90
        2
 40
-0.6
 41
30.0
 62
     5
 63
     7
421
 16777215
 74
     0
 91
        4
 64
     7
 65
   257
 75
     1
175
     1
 42
1.0
 92
        8
 66
     7
 43
1.0
 76
     1
 77
     6
 78
     2
 67
     7
 79
     5
170
     0
171
     0
290
     0
174
     0
 93
       13
 44
0.0
173
     0
291
     1
 45
0.0
  0
VISUALSTYLE
  5
2C
102
{ACAD_REACTORS
330
2A
102
}
102
{ACAD_XDICTIONARY
360
147
102
}
330
2A
100
AcDbVisualStyle
  2
FlatWithEdges
 70
     1
 71
     2
 72
     1
 73
     1
 90
        2
 40
-0.6
 41
30.0
 62
     5
 63
     7
421
 16777215
 74
     1
 91
        4
 64
     7
 65
   257
 75
     1
175
     1
 42
1.0
 92
        0
 66
   257
 43
1.0
 76
     1
 77
     6
 78
     2
 67
     7
 79
     5
170
     0
171
     0
290
     0
174
     0
 93
       13
 44
0.0
173
     0
291
     1
 45
0.0
  0
VISUALSTYLE
  5
2D
102
{ACAD_REACTORS
330
2A
102
}
102
{ACAD_XDICTIONARY
360
149
102
}
330
2A
100
AcDbVisualStyle
  2
Gouraud
 70
     2
 71
     2
 72
     2
 73
     1
 90
        2
 40
-0.6
 41
30.0
 62
     5
 63
     7
421
 16777215
 74
     0
 91
        4
 64
     7
 65
   257
 75
     1
175
     1
 42
1.0
 92
        0
 66
     7
 43
1.0
 76
     1
 77
     6
 78
     2
 67
     7
 79
     5
170
     0
171
     0
290
     0
174
     0
 93
       13
 44
0.0
173
     0
291
     1
 45
0.0
  0
VISUALSTYLE
  5
2E
102
{ACAD_REACTORS
330
2A
102
}
102
{ACAD_XDICTIONARY
360
14B
102
}
330
2A
100
AcDbVisualStyle
  2
GouraudWithEdges
 70
     3
 71
     2
 72
     2
 73
     1
 90
        2
 40
-0.6
 41
30.0
 62
     5
 63
     7
421
 16777215
 74
     1
 91
        4
 64
     7
 65
   257
 75
     1
175
     1
 42
1.0
 92
        0
 66
   257
 43
1.0
 76
     1
 77
     6
 78
     2
 67
     7
 79
     5
170
     0
171
     0
290
     0
174
     0
 93
       13
 44
0.0
173
     0
291
     1
 45
0.0
  0
VISUALSTYLE
  5
38
102
{ACAD_REACTORS
330
2A
102
}
102
{ACAD_XDICTIONARY
360
15F
102
}
330
2A
100
AcDbVisualStyle
  2
Linepattern
 70
    14
 71
     2
 72
     2
 73
     0
 90
        0
 40
-0.6
 41
-30.0
 62
     5
 63
     7
421
 16777215
 74
     1
 91
        4
 64
     7
 65
   257
 75
     7
175
     7
 42
1.0
 92
        8
 66
     7
 43
1.0
 76
     1
 77
     6
 78
     2
 67
     7
 79
     5
170
     0
171
     0
290
     0
174
     0
 93
        1
 44
0.0
173
     0
291
     1
 45
0.0
  0
VISUALSTYLE
  5
33
102
{ACAD_REACTORS
330
2A
102
}
102
{ACAD_XDICTIONARY
360
155
102
}
330
2A
100
AcDbVisualStyle
  2
Realistic
 70
     8
 71
     2
 72
     2
 73
     0
 90
        0
 40
-0.6
 41
-30.0
 62
     5
 63
     7
421
 16777215
 74
     1
 91
        0
 64
     7
 65
   257
 75
     1
175
     1
 42
1.0
 92
        8
 66
     8
424
  7895160
 43
1.0
 76
     1
 77
     6
 78
     2
 67
     7
 79
     5
170
     0
171
     0
290
     0
174
     0
 93
       13
 44
0.0
173
     0
291
     0
 45
0.0
  0
VISUALSTYLE
  5
37
102
{ACAD_REACTORS
330
2A
102
}
102
{ACAD_XDICTIONARY
360
15D
102
}
330
2A
100
AcDbVisualStyle
  2
Thicken
 70
    13
 71
     2
 72
     2
 73
     0
 90
        0
 40
-0.6
 41
-30.0
 62
     5
 63
     7
421
 16777215
 74
     1
 91
        4
 64
     7
 65
   257
 75
     1
175
     1
 42
1.0
 92
       12
 66
     7
 43
1.0
 76
     1
 77
     6
 78
     2
 67
     7
 79
     5
170
     0
171
     0
290
     0
174
     0
 93
        1
 44
0.0
173
     0
291
     1
 45
0.0
  0
DICTIONARYVAR
  5
144
102
{ACAD_REACTORS
330
143
102
}
330
143
100
DictionaryVariables
280
     0
  1
1:1
  0
DICTIONARY
  5
14D
330
2F
100
AcDbDictionary
280
     1
281
     1
  3
ACAD_XREC_ROUNDTRIP
360
14E
  0
DICTIONARY
  5
151
330
31
100
AcDbDictionary
280
     1
281
     1
  3
ACAD_XREC_ROUNDTRIP
360
152
  0
DICTIONARY
  5
14F
330
30
100
AcDbDictionary
280
     1
281
     1
  3
ACAD_XREC_ROUNDTRIP
360
150
  0
DICTIONARY
  5
153
330
32
100
AcDbDictionary
280
     1
281
     1
  3
ACAD_XREC_ROUNDTRIP
360
154
  0
DICTIONARY
  5
15B
330
36
100
AcDbDictionary
280
     1
281
     1
  3
ACAD_XREC_ROUNDTRIP
360
15C
  0
DICTIONARY
  5
163
330
3A
100
AcDbDictionary
280
     1
281
     1
  3
ACAD_XREC_ROUNDTRIP
360
164
  0
DICTIONARY
  5
157
330
34
100
AcDbDictionary
280
     1
281
     1
  3
ACAD_XREC_ROUNDTRIP
360
158
  0
DICTIONARY
  5
159
330
35
100
AcDbDictionary
280
     1
281
     1
  3
ACAD_XREC_ROUNDTRIP
360
15A
  0
DICTIONARY
  5
161
330
39
100
AcDbDictionary
280
     1
281
     1
  3
ACAD_XREC_ROUNDTRIP
360
162
  0
DICTIONARY
  5
145
330
2B
100
AcDbDictionary
280
     1
281
     1
  3
ACAD_XREC_ROUNDTRIP
360
146
  0
DICTIONARY
  5
147
330
2C
100
AcDbDictionary
280
     1
281
     1
  3
ACAD_XREC_ROUNDTRIP
360
148
  0
DICTIONARY
  5
149
330
2D
100
AcDbDictionary
280
     1
281
     1
  3
ACAD_XREC_ROUNDTRIP
360
14A
  0
DICTIONARY
  5
14B
330
2E
100
AcDbDictionary
280
     1
281
     1
  3
ACAD_XREC_ROUNDTRIP
360
14C
  0
DICTIONARY
  5
15F
330
38
100
AcDbDictionary
280
     1
281
     1
  3
ACAD_XREC_ROUNDTRIP
360
160
  0
DICTIONARY
  5
155
330
33
100
AcDbDictionary
280
     1
281
     1
  3
ACAD_XREC_ROUNDTRIP
360
156
  0
DICTIONARY
  5
15D
330
37
100
AcDbDictionary
280
     1
281
     1
  3
ACAD_XREC_ROUNDTRIP
360
15E
  0
XRECORD
  5
14E
102
{ACAD_REACTORS
330
14D
102
}
330
14D
100
AcDbXrecord
280
     1
102
RTVSPropertyOp0
 70
     1
102
RTVSPropertyOp1
 70
     1
102
RTVSPropertyOp2
 70
     1
102
RTVSPropertyOp3
 70
     1
102
RTVSPropertyOp4
 70
     1
102
RTVSPropertyOp5
 70
     1
102
RTVSPropertyOp6
 70
     1
102
RTVSPropertyOp7
 70
     1
102
RTVSPropertyOp8
 70
     1
102
RTVSPropertyOp9
 70
     1
102
RTVSPropertyOp10
 70
     1
102
RTVSPropertyOp11
 70
     1
102
RTVSPropertyOp12
 70
     1
102
RTVSPropertyOp13
 70
     1
102
RTVSPropertyOp14
 70
     1
102
RTVSPropertyOp15
 70
     1
102
RTVSPropertyOp16
 70
     1
102
RTVSPropertyOp17
 70
     1
102
RTVSPropertyOp18
 70
     1
102
RTVSPropertyOp19
 70
     1
102
RTVSPropertyOp20
 70
     1
102
RTVSPropertyOp21
 70
     1
102
RTVSPropertyOp22
 70
     1
102
RTVSPropertyOp23
 70
     1
102
RTVSPropertyOp24
 70
     1
102
RTVSPropertyOp25
 70
     1
102
RTVSPropertyOp26
 70
     1
102
RTVSPropertyOp27
 70
     1
  0
XRECORD
  5
152
102
{ACAD_REACTORS
330
151
102
}
330
151
100
AcDbXrecord
280
     1
102
RTVSPropertyOp0
 70
     1
102
RTVSPropertyOp1
 70
     1
102
RTVSPropertyOp2
 70
     1
102
RTVSPropertyOp3
 70
     1
102
RTVSPropertyOp4
 70
     1
102
RTVSPropertyOp5
 70
     1
102
RTVSPropertyOp6
 70
     1
102
RTVSPropertyOp7
 70
     1
102
RTVSPropertyOp8
 70
     1
102
RTVSPropertyOp9
 70
     1
102
RTVSPropertyOp10
 70
     1
102
RTVSPropertyOp11
 70
     1
102
RTVSPropertyOp12
 70
     1
102
RTVSPropertyOp13
 70
     1
102
RTVSPropertyOp14
 70
     1
102
RTVSPropertyOp15
 70
     1
102
RTVSPropertyOp16
 70
     1
102
RTVSPropertyOp17
 70
     1
102
RTVSPropertyOp18
 70
     1
102
RTVSPropertyOp19
 70
     1
102
RTVSPropertyOp20
 70
     1
102
RTVSPropertyOp21
 70
     1
102
RTVSPropertyOp22
 70
     1
102
RTVSPropertyOp23
 70
     1
102
RTVSPropertyOp24
 70
     1
102
RTVSPropertyOp25
 70
     1
102
RTVSPropertyOp26
 70
     1
102
RTVSPropertyOp27
 70
     1
  0
XRECORD
  5
150
102
{ACAD_REACTORS
330
14F
102
}
330
14F
100
AcDbXrecord
280
     1
102
RTVSPropertyOp0
 70
     1
102
RTVSPropertyOp1
 70
     1
102
RTVSPropertyOp2
 70
     1
102
RTVSPropertyOp3
 70
     1
102
RTVSPropertyOp4
 70
     1
102
RTVSPropertyOp5
 70
     1
102
RTVSPropertyOp6
 70
     1
102
RTVSPropertyOp7
 70
     1
102
RTVSPropertyOp8
 70
     1
102
RTVSPropertyOp9
 70
     1
102
RTVSPropertyOp10
 70
     1
102
RTVSPropertyOp11
 70
     1
102
RTVSPropertyOp12
 70
     1
102
RTVSPropertyOp13
 70
     1
102
RTVSPropertyOp14
 70
     1
102
RTVSPropertyOp15
 70
     1
102
RTVSPropertyOp16
 70
     1
102
RTVSPropertyOp17
 70
     1
102
RTVSPropertyOp18
 70
     1
102
RTVSPropertyOp19
 70
     1
102
RTVSPropertyOp20
 70
     1
102
RTVSPropertyOp21
 70
     1
102
RTVSPropertyOp22
 70
     1
102
RTVSPropertyOp23
 70
     1
102
RTVSPropertyOp24
 70
     1
102
RTVSPropertyOp25
 70
     1
102
RTVSPropertyOp26
 70
     1
102
RTVSPropertyOp27
 70
     1
  0
XRECORD
  5
154
102
{ACAD_REACTORS
330
153
102
}
330
153
100
AcDbXrecord
280
     1
102
RTVSPropertyOp0
 70
     1
102
RTVSPropertyOp1
 70
     1
102
RTVSPropertyOp2
 70
     1
102
RTVSPropertyOp3
 70
     1
102
RTVSPropertyOp4
 70
     1
102
RTVSPropertyOp5
 70
     1
102
RTVSPropertyOp6
 70
     1
102
RTVSPropertyOp7
 70
     1
102
RTVSPropertyOp8
 70
     1
102
RTVSPropertyOp9
 70
     1
102
RTVSPropertyOp10
 70
     1
102
RTVSPropertyOp11
 70
     1
102
RTVSPropertyOp12
 70
     1
102
RTVSPropertyOp13
 70
     1
102
RTVSPropertyOp14
 70
     1
102
RTVSPropertyOp15
 70
     1
102
RTVSPropertyOp16
 70
     1
102
RTVSPropertyOp17
 70
     1
102
RTVSPropertyOp18
 70
     1
102
RTVSPropertyOp19
 70
     1
102
RTVSPropertyOp20
 70
     1
102
RTVSPropertyOp21
 70
     1
102
RTVSPropertyOp22
 70
     1
102
RTVSPropertyOp23
 70
     1
102
RTVSPropertyOp24
 70
     1
102
RTVSPropertyOp25
 70
     1
102
RTVSPropertyOp26
 70
     1
102
RTVSPropertyOp27
 70
     1
  0
XRECORD
  5
15C
102
{ACAD_REACTORS
330
15B
102
}
330
15B
100
AcDbXrecord
280
     1
102
RTVSPropertyOp0
 70
     1
102
RTVSPropertyOp1
 70
     1
102
RTVSPropertyOp2
 70
     1
102
RTVSPropertyOp3
 70
     1
102
RTVSPropertyOp4
 70
     1
102
RTVSPropertyOp5
 70
     1
102
RTVSPropertyOp6
 70
     1
102
RTVSPropertyOp7
 70
     1
102
RTVSPropertyOp8
 70
     1
102
RTVSPropertyOp9
 70
     1
102
RTVSPropertyOp10
 70
     1
102
RTVSPropertyOp11
 70
     1
102
RTVSPropertyOp12
 70
     1
102
RTVSPropertyOp13
 70
     1
102
RTVSPropertyOp14
 70
     1
102
RTVSPropertyOp15
 70
     1
102
RTVSPropertyOp16
 70
     1
102
RTVSPropertyOp17
 70
     1
102
RTVSPropertyOp18
 70
     1
102
RTVSPropertyOp19
 70
     1
102
RTVSPropertyOp20
 70
     1
102
RTVSPropertyOp21
 70
     1
102
RTVSPropertyOp22
 70
     1
102
RTVSPropertyOp23
 70
     1
102
RTVSPropertyOp24
 70
     1
102
RTVSPropertyOp25
 70
     1
102
RTVSPropertyOp26
 70
     1
102
RTVSPropertyOp27
 70
     1
  0
XRECORD
  5
164
102
{ACAD_REACTORS
330
163
102
}
330
163
100
AcDbXrecord
280
     1
102
RTVSPropertyOp0
 70
     1
102
RTVSPropertyOp1
 70
     1
102
RTVSPropertyOp2
 70
     1
102
RTVSPropertyOp3
 70
     1
102
RTVSPropertyOp4
 70
     1
102
RTVSPropertyOp5
 70
     1
102
RTVSPropertyOp6
 70
     1
102
RTVSPropertyOp7
 70
     1
102
RTVSPropertyOp8
 70
     1
102
RTVSPropertyOp9
 70
     1
102
RTVSPropertyOp10
 70
     1
102
RTVSPropertyOp11
 70
     1
102
RTVSPropertyOp12
 70
     1
102
RTVSPropertyOp13
 70
     1
102
RTVSPropertyOp14
 70
     1
102
RTVSPropertyOp15
 70
     1
102
RTVSPropertyOp16
 70
     1
102
RTVSPropertyOp17
 70
     1
102
RTVSPropertyOp18
 70
     1
102
RTVSPropertyOp19
 70
     1
102
RTVSPropertyOp20
 70
     1
102
RTVSPropertyOp21
 70
     1
102
RTVSPropertyOp22
 70
     1
102
RTVSPropertyOp23
 70
     1
102
RTVSPropertyOp24
 70
     1
102
RTVSPropertyOp25
 70
     1
102
RTVSPropertyOp26
 70
     1
102
RTVSPropertyOp27
 70
     1
  0
XRECORD
  5
158
102
{ACAD_REACTORS
330
157
102
}
330
157
100
AcDbXrecord
280
     1
102
RTVSPropertyOp0
 70
     1
102
RTVSPropertyOp1
 70
     1
102
RTVSPropertyOp2
 70
     1
102
RTVSPropertyOp3
 70
     1
102
RTVSPropertyOp4
 70
     1
102
RTVSPropertyOp5
 70
     1
102
RTVSPropertyOp6
 70
     1
102
RTVSPropertyOp7
 70
     1
102
RTVSPropertyOp8
 70
     1
102
RTVSPropertyOp9
 70
     1
102
RTVSPropertyOp10
 70
     1
102
RTVSPropertyOp11
 70
     1
102
RTVSPropertyOp12
 70
     1
102
RTVSPropertyOp13
 70
     1
102
RTVSPropertyOp14
 70
     1
102
RTVSPropertyOp15
 70
     1
102
RTVSPropertyOp16
 70
     1
102
RTVSPropertyOp17
 70
     1
102
RTVSPropertyOp18
 70
     1
102
RTVSPropertyOp19
 70
     1
102
RTVSPropertyOp20
 70
     1
102
RTVSPropertyOp21
 70
     1
102
RTVSPropertyOp22
 70
     1
102
RTVSPropertyOp23
 70
     1
102
RTVSPropertyOp24
 70
     1
102
RTVSPropertyOp25
 70
     1
102
RTVSPropertyOp26
 70
     1
102
RTVSPropertyOp27
 70
     1
  0
XRECORD
  5
15A
102
{ACAD_REACTORS
330
159
102
}
330
159
100
AcDbXrecord
280
     1
102
RTVSPropertyOp0
 70
     1
102
RTVSPropertyOp1
 70
     1
102
RTVSPropertyOp2
 70
     1
102
RTVSPropertyOp3
 70
     1
102
RTVSPropertyOp4
 70
     1
102
RTVSPropertyOp5
 70
     1
102
RTVSPropertyOp6
 70
     1
102
RTVSPropertyOp7
 70
     1
102
RTVSPropertyOp8
 70
     1
102
RTVSPropertyOp9
 70
     1
102
RTVSPropertyOp10
 70
     1
102
RTVSPropertyOp11
 70
     1
102
RTVSPropertyOp12
 70
     1
102
RTVSPropertyOp13
 70
     1
102
RTVSPropertyOp14
 70
     1
102
RTVSPropertyOp15
 70
     1
102
RTVSPropertyOp16
 70
     1
102
RTVSPropertyOp17
 70
     1
102
RTVSPropertyOp18
 70
     1
102
RTVSPropertyOp19
 70
     1
102
RTVSPropertyOp20
 70
     1
102
RTVSPropertyOp21
 70
     1
102
RTVSPropertyOp22
 70
     1
102
RTVSPropertyOp23
 70
     1
102
RTVSPropertyOp24
 70
     1
102
RTVSPropertyOp25
 70
     1
102
RTVSPropertyOp26
 70
     1
102
RTVSPropertyOp27
 70
     1
  0
XRECORD
  5
162
102
{ACAD_REACTORS
330
161
102
}
330
161
100
AcDbXrecord
280
     1
102
RTVSPropertyOp0
 70
     1
102
RTVSPropertyOp1
 70
     1
102
RTVSPropertyOp2
 70
     1
102
RTVSPropertyOp3
 70
     1
102
RTVSPropertyOp4
 70
     1
102
RTVSPropertyOp5
 70
     1
102
RTVSPropertyOp6
 70
     1
102
RTVSPropertyOp7
 70
     1
102
RTVSPropertyOp8
 70
     1
102
RTVSPropertyOp9
 70
     1
102
RTVSPropertyOp10
 70
     1
102
RTVSPropertyOp11
 70
     1
102
RTVSPropertyOp12
 70
     1
102
RTVSPropertyOp13
 70
     1
102
RTVSPropertyOp14
 70
     1
102
RTVSPropertyOp15
 70
     1
102
RTVSPropertyOp16
 70
     1
102
RTVSPropertyOp17
 70
     1
102
RTVSPropertyOp18
 70
     1
102
RTVSPropertyOp19
 70
     1
102
RTVSPropertyOp20
 70
     1
102
RTVSPropertyOp21
 70
     1
102
RTVSPropertyOp22
 70
     1
102
RTVSPropertyOp23
 70
     1
102
RTVSPropertyOp24
 70
     1
102
RTVSPropertyOp25
 70
     1
102
RTVSPropertyOp26
 70
     1
102
RTVSPropertyOp27
 70
     1
  0
XRECORD
  5
146
102
{ACAD_REACTORS
330
145
102
}
330
145
100
AcDbXrecord
280
     1
102
RTVSPropertyOp0
 70
     1
102
RTVSPropertyOp1
 70
     1
102
RTVSPropertyOp2
 70
     1
102
RTVSPropertyOp3
 70
     1
102
RTVSPropertyOp4
 70
     1
102
RTVSPropertyOp5
 70
     1
102
RTVSPropertyOp6
 70
     1
102
RTVSPropertyOp7
 70
     1
102
RTVSPropertyOp8
 70
     1
102
RTVSPropertyOp9
 70
     1
102
RTVSPropertyOp10
 70
     1
102
RTVSPropertyOp11
 70
     1
102
RTVSPropertyOp12
 70
     1
102
RTVSPropertyOp13
 70
     1
102
RTVSPropertyOp14
 70
     1
102
RTVSPropertyOp15
 70
     1
102
RTVSPropertyOp16
 70
     1
102
RTVSPropertyOp17
 70
     1
102
RTVSPropertyOp18
 70
     1
102
RTVSPropertyOp19
 70
     1
102
RTVSPropertyOp20
 70
     1
102
RTVSPropertyOp21
 70
     1
102
RTVSPropertyOp22
 70
     1
102
RTVSPropertyOp23
 70
     1
102
RTVSPropertyOp24
 70
     1
102
RTVSPropertyOp25
 70
     1
102
RTVSPropertyOp26
 70
     1
102
RTVSPropertyOp27
 70
     1
  0
XRECORD
  5
148
102
{ACAD_REACTORS
330
147
102
}
330
147
100
AcDbXrecord
280
     1
102
RTVSPropertyOp0
 70
     1
102
RTVSPropertyOp1
 70
     1
102
RTVSPropertyOp2
 70
     1
102
RTVSPropertyOp3
 70
     1
102
RTVSPropertyOp4
 70
     1
102
RTVSPropertyOp5
 70
     1
102
RTVSPropertyOp6
 70
     1
102
RTVSPropertyOp7
 70
     1
102
RTVSPropertyOp8
 70
     1
102
RTVSPropertyOp9
 70
     1
102
RTVSPropertyOp10
 70
     1
102
RTVSPropertyOp11
 70
     1
102
RTVSPropertyOp12
 70
     1
102
RTVSPropertyOp13
 70
     1
102
RTVSPropertyOp14
 70
     1
102
RTVSPropertyOp15
 70
     1
102
RTVSPropertyOp16
 70
     1
102
RTVSPropertyOp17
 70
     1
102
RTVSPropertyOp18
 70
     1
102
RTVSPropertyOp19
 70
     1
102
RTVSPropertyOp20
 70
     1
102
RTVSPropertyOp21
 70
     1
102
RTVSPropertyOp22
 70
     1
102
RTVSPropertyOp23
 70
     1
102
RTVSPropertyOp24
 70
     1
102
RTVSPropertyOp25
 70
     1
102
RTVSPropertyOp26
 70
     1
102
RTVSPropertyOp27
 70
     1
  0
XRECORD
  5
14A
102
{ACAD_REACTORS
330
149
102
}
330
149
100
AcDbXrecord
280
     1
102
RTVSPropertyOp0
 70
     1
102
RTVSPropertyOp1
 70
     1
102
RTVSPropertyOp2
 70
     1
102
RTVSPropertyOp3
 70
     1
102
RTVSPropertyOp4
 70
     1
102
RTVSPropertyOp5
 70
     1
102
RTVSPropertyOp6
 70
     1
102
RTVSPropertyOp7
 70
     1
102
RTVSPropertyOp8
 70
     1
102
RTVSPropertyOp9
 70
     1
102
RTVSPropertyOp10
 70
     1
102
RTVSPropertyOp11
 70
     1
102
RTVSPropertyOp12
 70
     1
102
RTVSPropertyOp13
 70
     1
102
RTVSPropertyOp14
 70
     1
102
RTVSPropertyOp15
 70
     1
102
RTVSPropertyOp16
 70
     1
102
RTVSPropertyOp17
 70
     1
102
RTVSPropertyOp18
 70
     1
102
RTVSPropertyOp19
 70
     1
102
RTVSPropertyOp20
 70
     1
102
RTVSPropertyOp21
 70
     1
102
RTVSPropertyOp22
 70
     1
102
RTVSPropertyOp23
 70
     1
102
RTVSPropertyOp24
 70
     1
102
RTVSPropertyOp25
 70
     1
102
RTVSPropertyOp26
 70
     1
102
RTVSPropertyOp27
 70
     1
  0
XRECORD
  5
14C
102
{ACAD_REACTORS
330
14B
102
}
330
14B
100
AcDbXrecord
280
     1
102
RTVSPropertyOp0
 70
     1
102
RTVSPropertyOp1
 70
     1
102
RTVSPropertyOp2
 70
     1
102
RTVSPropertyOp3
 70
     1
102
RTVSPropertyOp4
 70
     1
102
RTVSPropertyOp5
 70
     1
102
RTVSPropertyOp6
 70
     1
102
RTVSPropertyOp7
 70
     1
102
RTVSPropertyOp8
 70
     1
102
RTVSPropertyOp9
 70
     1
102
RTVSPropertyOp10
 70
     1
102
RTVSPropertyOp11
 70
     1
102
RTVSPropertyOp12
 70
     1
102
RTVSPropertyOp13
 70
     1
102
RTVSPropertyOp14
 70
     1
102
RTVSPropertyOp15
 70
     1
102
RTVSPropertyOp16
 70
     1
102
RTVSPropertyOp17
 70
     1
102
RTVSPropertyOp18
 70
     1
102
RTVSPropertyOp19
 70
     1
102
RTVSPropertyOp20
 70
     1
102
RTVSPropertyOp21
 70
     1
102
RTVSPropertyOp22
 70
     1
102
RTVSPropertyOp23
 70
     1
102
RTVSPropertyOp24
 70
     1
102
RTVSPropertyOp25
 70
     1
102
RTVSPropertyOp26
 70
     1
102
RTVSPropertyOp27
 70
     1
  0
XRECORD
  5
160
102
{ACAD_REACTORS
330
15F
102
}
330
15F
100
AcDbXrecord
280
     1
102
RTVSPropertyOp0
 70
     1
102
RTVSPropertyOp1
 70
     1
102
RTVSPropertyOp2
 70
     1
102
RTVSPropertyOp3
 70
     1
102
RTVSPropertyOp4
 70
     1
102
RTVSPropertyOp5
 70
     1
102
RTVSPropertyOp6
 70
     1
102
RTVSPropertyOp7
 70
     1
102
RTVSPropertyOp8
 70
     1
102
RTVSPropertyOp9
 70
     1
102
RTVSPropertyOp10
 70
     1
102
RTVSPropertyOp11
 70
     1
102
RTVSPropertyOp12
 70
     1
102
RTVSPropertyOp13
 70
     1
102
RTVSPropertyOp14
 70
     1
102
RTVSPropertyOp15
 70
     1
102
RTVSPropertyOp16
 70
     1
102
RTVSPropertyOp17
 70
     1
102
RTVSPropertyOp18
 70
     1
102
RTVSPropertyOp19
 70
     1
102
RTVSPropertyOp20
 70
     1
102
RTVSPropertyOp21
 70
     1
102
RTVSPropertyOp22
 70
     1
102
RTVSPropertyOp23
 70
     1
102
RTVSPropertyOp24
 70
     1
102
RTVSPropertyOp25
 70
     1
102
RTVSPropertyOp26
 70
     1
102
RTVSPropertyOp27
 70
     1
  0
XRECORD
  5
156
102
{ACAD_REACTORS
330
155
102
}
330
155
100
AcDbXrecord
280
     1
102
RTVSPropertyOp0
 70
     1
102
RTVSPropertyOp1
 70
     1
102
RTVSPropertyOp2
 70
     1
102
RTVSPropertyOp3
 70
     1
102
RTVSPropertyOp4
 70
     1
102
RTVSPropertyOp5
 70
     1
102
RTVSPropertyOp6
 70
     1
102
RTVSPropertyOp7
 70
     1
102
RTVSPropertyOp8
 70
     1
102
RTVSPropertyOp9
 70
     1
102
RTVSPropertyOp10
 70
     1
102
RTVSPropertyOp11
 70
     1
102
RTVSPropertyOp12
 70
     1
102
RTVSPropertyOp13
 70
     1
102
RTVSPropertyOp14
 70
     1
102
RTVSPropertyOp15
 70
     1
102
RTVSPropertyOp16
 70
     1
102
RTVSPropertyOp17
 70
     1
102
RTVSPropertyOp18
 70
     1
102
RTVSPropertyOp19
 70
     1
102
RTVSPropertyOp20
 70
     1
102
RTVSPropertyOp21
 70
     1
102
RTVSPropertyOp22
 70
     1
102
RTVSPropertyOp23
 70
     1
102
RTVSPropertyOp24
 70
     1
102
RTVSPropertyOp25
 70
     1
102
RTVSPropertyOp26
 70
     1
102
RTVSPropertyOp27
 70
     1
  0
XRECORD
  5
15E
102
{ACAD_REACTORS
330
15D
102
}
330
15D
100
AcDbXrecord
280
     1
102
RTVSPropertyOp0
 70
     1
102
RTVSPropertyOp1
 70
     1
102
RTVSPropertyOp2
 70
     1
102
RTVSPropertyOp3
 70
     1
102
RTVSPropertyOp4
 70
     1
102
RTVSPropertyOp5
 70
     1
102
RTVSPropertyOp6
 70
     1
102
RTVSPropertyOp7
 70
     1
102
RTVSPropertyOp8
 70
     1
102
RTVSPropertyOp9
 70
     1
102
RTVSPropertyOp10
 70
     1
102
RTVSPropertyOp11
 70
     1
102
RTVSPropertyOp12
 70
     1
102
RTVSPropertyOp13
 70
     1
102
RTVSPropertyOp14
 70
     1
102
RTVSPropertyOp15
 70
     1
102
RTVSPropertyOp16
 70
     1
102
RTVSPropertyOp17
 70
     1
102
RTVSPropertyOp18
 70
     1
102
RTVSPropertyOp19
 70
     1
102
RTVSPropertyOp20
 70
     1
102
RTVSPropertyOp21
 70
     1
102
RTVSPropertyOp22
 70
     1
102
RTVSPropertyOp23
 70
     1
102
RTVSPropertyOp24
 70
     1
102
RTVSPropertyOp25
 70
     1
102
RTVSPropertyOp26
 70
     1
102
RTVSPropertyOp27
 70
     1
  0
ENDSEC
  0
SECTION
  2
THUMBNAILIMAGE
 90
    16364
310
28000000B40000005500000001000800000000000000000000000000000000000000000000000000FFFFFF00FF000000FFFF000000FF000000FFFF000000FF00FF00FF000000000080808000C0C0C000FF000000FF7F7F00A5000000A55252007F0000007F3F3F004C0000004C2626002600000026131300FF3F0000FF9F7F
310
00A5290000A56752007F1F00007F4F3F004C1300004C2F26002609000026171300FF7F0000FFBF7F00A5520000A57C52007F3F00007F5F3F004C2600004C39260026130000261C1300FFBF0000FFDF7F00A57C0000A59152007F5F00007F6F3F004C3900004C422600261C000026211300FFFF0000FFFF7F00A5A50000A5A5
310
52007F7F00007F7F3F004C4C00004C4C26002626000026261300BFFF0000DFFF7F007CA5000091A552005F7F00006F7F3F00394C0000424C26001C260000212613007FFF0000BFFF7F0052A500007CA552003F7F00005F7F3F00264C0000394C2600132600001C2613003FFF00009FFF7F0029A5000067A552001F7F00004F
310
7F3F00134C00002F4C2600092600001726130000FF00007FFF7F0000A5000052A55200007F00003F7F3F00004C0000264C2600002600001326130000FF3F007FFF9F0000A5290052A56700007F1F003F7F4F00004C1300264C2F00002609001326170000FF7F007FFFBF0000A5520052A57C00007F3F003F7F5F00004C2600
310
264C39000026130013261C0000FFBF007FFFDF0000A57C0052A59100007F5F003F7F6F00004C3900264C420000261C001326210000FFFF007FFFFF0000A5A50052A5A500007F7F003F7F7F00004C4C00264C4C00002626001326260000BFFF007FDFFF00007CA5005291A500005F7F003F6F7F0000394C0026424C00001C26
310
0013212600007FFF007FBFFF000052A500527CA500003F7F003F5F7F0000264C0026394C0000132600131C2600003FFF007F9FFF000029A5005267A500001F7F003F4F7F0000134C00262F4C0000092600131726000000FF007F7FFF000000A5005252A50000007F003F3F7F0000004C0026264C0000002600131326003F00
310
FF009F7FFF002900A5006752A5001F007F004F3F7F0013004C002F264C0009002600171326007F00FF00BF7FFF005200A5007C52A5003F007F005F3F7F0026004C0039264C00130026001C132600BF00FF00DF7FFF007C00A5009152A5005F007F006F3F7F0039004C0042264C001C00260021132600FF00FF00FF7FFF00A5
310
00A500A552A5007F007F007F3F7F004C004C004C264C002600260026132600FF00BF00FF7FDF00A5007C00A55291007F005F007F3F6F004C0039004C26420026001C0026132100FF007F00FF7FBF00A5005200A5527C007F003F007F3F5F004C0026004C2639002600130026131C00FF003F00FF7F9F00A5002900A5526700
310
7F001F007F3F4F004C0013004C262F002600090026131700000000002D2D2D005B5B5B0089898900B7B7B700B3B3B30000000000000000000000000000000000000000000000000000000000000000000000000000000000000000000000000000000000000000000000000000000000000000000000000000000000000000
310
00000000000000000000000000000000000000000000000000000000000000000000000000000000000000000000000000000000000000000000000000000000000000000000000000000000000000000000000000000000000000000000000000000000000000000000000000000000000000000000000000000000000000
310
00000000000000000000000000000000000000000000000000000000000000000000000000000000000000000000000000000000000000000000000000000000000000000000000000000000000000000000000000000000000000000000000000000000000000000000000000000000000000000000000000000000000000
310
00000000000000000000000000000000000000000000000000000000000000000000000000000000000000000000000000000000000000000000000000000000000000000000000000000000000000000000000000000000000000000000000000000000000000000000000000000000000000000000000000000000000000
310
00000000000000000000000000000000000000000000000000000000000000000000000000000000000000000000000000000000000000000000000000000000000000000000000000000000000000000000000000000000000000000000000000000000000000000000000000000000000000000000000000000000000000
310
00000000000000000000000000000000000000000000000000000000000000000000000000000000000000000000000000000000000000000000000000000000000000000000000000000000000000000000000000000000000000000000000000000000000000000000000000000000000000000000000000000000000000
310
00000000000000000000000000000000000000000000000000000000000000000000000000000000000000000000000000000000000000000000000000000000000000000000000000000000000000000000000000000000000000000000000000000000000000000000000000000000000000000000000000000000000000
310
00000000000000000000000000000000000000000000000000000000000000000000000000000000000000000000000000000000000000000000000000000000000000000000000000000000000000000000000000000000000000000000000000000000000000000000000000000000000000000000000000000000000000
310
00000000000000000000000000000000000000000000000000000000000000000000000000000000000000000000000000000000000000000000000000000000000000000000000000000000000000000000000000000000000000000000000000000000000000000000000000000000000000000000000000000000000000
310
00000000000000000000000000000000000000000000000000000000000000000000000000000000000000000000000000000000000000000000000000000000000000000000000000000000000000000000000000000000000000000000000000000000000000000000000000000000000000000000000000000000000000
310
00000000000000000000000000000000000000000000000000000000000000000000000000000000000000000000000000000000000000000000000000000000000000000000000000000000000000000000000000000000000000000000000000000000000000000000000000000000000000000000000000000000000000
310
00000000000000000000000000000000000000000000000000000000000000000000000000000000000000000000000000000000000000000000000000000000000000000000000000000000000000000000000000000000000000000000000000000000000000000000000000000000000000000000000000000000000000
310
00000000000000000000000000000000000000000000000000000000000000000000000000000000000000000000000000000000000000000000000000000000000000000000000000000000000000000000000000000000000000000000000000000000000000000000000000000000000000000000000000000000000000
310
00000000000000000000000000000000000000000000000000000000000000000000000000000000000000000000000000000000000000000000000000000000000000000000000000000000000000000000000000000000000000000000000000000000000000000000000000000000000000000000000000000000000000
310
00000000000000000000000000000000000000000000000000000000000000000000000000000000000000000000000000000000000000000000000000000000000000000000000000000000000000000000000000000000000000000000000000000000000000000000000000000000000000000000000000000000000000
310
00000000000000000000000000000000000000000000000000000000000000000000000000000000000000000000000000000000000000000000000000000000000000000000000000000000000000000000000000000000000000000000000000000000000000000000000000000000000000000000000000000000000000
310
00000000000000000000000000000000000000000000000000000000000000000000000000000000000000000000000000000000000000000000000000000000000000000000000000000000000000000000000000000000000000000000000000000000000000000000000000000000000000000000000000000000000000
310
00000000000000000000000000000000000000000000000000000000000000000000000000000000000000000000000000000000000000000000000000000000000000000000000000000000000000000000000000000000000000000000000000000000000000000000000000000000000000000000000000000000000000
310
00000000000000000000000000000000000000000000000000000000000000000000000000000000000000000000000000000000000000000000000000000000000000000000000000000000000000000000000000000000000000000000000000000000000000000000000000000000000000000000000000000000000000
310
00000000000000000000000000000000000000000000000000000000000000000000000000000000000000000000000000000000000000000000000000000000000000000000000000000000000000000000000000000000000000000000000000000000000000000000000000000000000000000000000000000000000000
310
00000000000000000000000000000000000000000000000000000000000000000000000000000000000000000000000000000000000000000000000000000000000000000000000000000000000000000000000000000000000000000000000000000000000000000000000000000000000000000000000000000000000000
310
00000000000000000000000000000000000000000000000000000000000000000000000000000000000000000000000000000000000000000000000000000000000000000000000000000000000000000000000000000000000000000000000000000000000000000000000001010101010101010101010101010101010101
310
01010100000000000001010101010000000000000000000000000000000000000000000000000000000000000000000000000000000000000000000000000000000000000000000000000000000000000000000000000000000000000000000000000000000000000000000000000000000000000000000000000000000000
310
00000000000000000000000000000000000000000000000000000000000000000000010000000100000000000000000000000001000000010000000000000101010100010000000000000000000000000000000000000000000000000000000000000000000000000000000000000000000000000000000000000000000000
310
00000000000000000000000000000000000000000000000000000000000000000000000000000000000000000000000000000000000000000000000000000000000000000000000000000000000000000000000000000101010000000000000101010101010101010101010101000000000000010100010100010100000000
310
00000000000000000000000000000000000000000000000000000000000000000000000000000000000000000000000000000000000000000000000000000000000000000000000000000000000000000000000000000000000000000000000000000000000000000000000000000000000000000000000000000000000000
310
00000000000000000000000001000000010000000001010101010101010101010000010000000000000100010100010000010000000000000000000000000000000000000000000000000000000000000000000000000000000000000000000000000000000000000000000000000000000000000000000000000000000000
310
00000000000000000000000000000000000000000000000000000000000000000000000000000000000000000000000000000000000000000000000000000000010000000100010000000001000101010101010000000001000000000000010001010000010100010100000000000000000000000000000000000000000000
310
00000000000000000000000000000000000000000000000000000000000000000000000000000000000000000000000000000000000000000000000000000000000000000000000000000000000000000000000000000000000000000000000000000000000000000000000000000000000000000001000001000000010000
310
00000001000000000100000000010000000000000100010100000000010000010100000000000000000000000000000000000000000000000000000000000000000000000000000000000000000000000000000000000000000000000000000000000000000000000000000000000000000000000000000000000000000000
310
00000000000000000000000000000000000000000000000000000000000000000000000000000000000001000000000101010000000000000101010101010000000001000000000000010001010000000100000001010000000000000000000000000000000000000000000000000000000000000000000000000000000000
310
00000000000000000000000000000000000000000000000000000000000000000000000000000000000000000000000000000000000000000000000000000000000000000000000000000000000000000000000000000000000000000000000100010101010101010000000101010101010101010100000100000000000001
310
00000101010100000101010000000000000000000000000000000000000000000000000000000000000000000000000000000000000000000000000000000000000000000000000000000000000000000000000000000000000000000000000000000000000000000000000000000000000000000000000000000000000000
310
00000000000000000000000000000000000000000001000100000000000101000001010101010101010101000000010101010101010000000000000101000000000000000000000000000000000000000000000000000000000000000000000000000000000000000000000000000000000000000000000000000000000000
310
00000000000000000000000000000000000000000000000000000000000000000000000000000000000000000000000000000000000000000000000000000000000000000000000000010000010000000000010100000100000000000000000000000001010000000100000000000101000000000000000000000000000000
310
00000000000000000000000000000000000000000000000000000000000000000000000000000000000000000000000000000000000000000000000000000000000000000000000000000000000000000000000000000000000000000000000000000000000000000000000000000000000000000000000000000000000001
310
00000101010101010101000000000000000101010101010101010101000000000001010100000000000000000000000000000000000000000000000000000000000000000000000000000000000000000000000000000000000000000000000000000000000000000000000000000000000000000000000000000000000000
310
00000000000000000000000000000000000000000000000000000000000000000000000000000000000000000000000000000101010000000000000000000001010101010101010000000100000000000100000000010100000000000000000000000000000000000000000000000000000000000000000000000000000000
310
00000000000000000000000000000000000000000000000000000000000000000000000000000000000000000000000000000000000000000000000000000000000000000000000000000000000000000000000000000000000000000000000000000000000000010000000000000000010101010101000000000000000000
310
00000000000001000001010000000000000000000000000000000000000000000000000000000000000000000000000000000000000000000000000000000000000000000000000000000000000000000000000000000000000000000000000000000000000000000000000000000000000000000000000000000000000000
310
00000000000000000000000000000000000000000000000000000000000101000000000100000100000000000000000000000000000000000001010100000100000000000000000000000000000000000000000000000000000000000000000000000000000000000000000000000000000000000000000000000000000000
310
00000000000000000000000000000000000000000000000000000000000000000000000000000000000000000000000000000000000000000000000000000000000000000000000000000000000000000000010000010101000000010100010101010000000000000000010101010100000101000100000000000000000000
310
00000000000000000000000000000000000000000000000000000000000000000000000000000000000000000000000000000000000000000000000000000000000000000000000000000000000000000000000000000000000000000000000000000000000000000000000000000000000000000000000000000000000000
310
00000000000000000100010000010001000001010100000001010101010101010100000000010100010001000000000000000000000000000000000000000000000000000000000000000000000000000000000000000000000000000000000000000000000000000000000000000000000000000000000000000000000000
310
00000000000000000000000000000000000000000000000000000000000000000000000000000000000000000000000000000000000000000000000000010100010101000000010101010100000000000000000000000000010100000001010100000000000000000000000000000000000000000000000000000000000000
310
00000000000000000000000000000000000000000000000000000000000000000000000000000000000000000000000000000000000000000000000000000000000000000000000000000000000000000000000000000000000000000000000000000000000000000000000000000000000000010100000001010000010000
310
01010101010101000000000000000101010101010001000000000000000000000000000000000000000000000000000000000000000000000000000000000000000000000000000000000000000000000000000000000000000000000000000000000000000000000000000000000000000000000000000000000000000000
310
00000000000000000000000000000000000000000000000000000000000000000000000000000000000000010000010000000100010100000000000100000000000001010101010100010100000000000000000000000000000000000000000000000000000000000000000000000000000000000000000000000000000000
310
00000000000000000000000000000000000000000000000000000000000000000000000000000000000000000000000000000000000000000000000000000000000000000000000000000000000000000000000000000000000000000000000000010100000001010001010000000000010100000000000100000000000001
310
01000000000000000000000000000000000000000000000000000000000000000000000000000000000000000000000000000000000000000000000000000000000000000000000000000000000000000000000000000000000000000000000000000000000000000000000000000000000000000000000000000000000000
310
00000000000000000000000000000000000000000000000001010101010101010101010101010101010000000001000000000001010100000000000000000000000000000000000000000000000000000000000000000000000000000000000000000000000000000000000000000000000000000000000000000000000000
310
00000000000000000000000000000000000000000000000000000000000000000000000000000000000000000000000000000000000000000000000000000000000000000000000000000000000000000000000000010100010101010101010101010101010101010101010100000000000000000000000000000000000000
310
00000000000000000000000000000000000000000000000000000000000000000000000000000000000000000000000000000000000000000000000000000000000000000000000000000000000000000000000000000000000000000000000000000000000000000000000000000000000000000000000000000000000000
310
00000000000000000000000000000000000000010000010101010101010101010100000000000000000000000000000000000000000000000000000000000000000000000000000000000000000000000000000000000000000000000000000000000000000000000000000000000000000000000000000000000000000000
310
00000000000000000000000000000000000000000000000000000000000000000000000000000000000000000000000000000000000000000000000000000000000000000000000000000000000000000000000000000000000000000000000000000000000000000000000000000000000000000000000000000000000000
310
00000000000000000000000000000000000000000000000000000000000000000000000000000000000000000000000000000000000000000000000000000000000000000000000000000000000000000000000000000000000000000000000000000000000000000000000000000001010101010000000000000101010101
310
01010101010101010101010101010101010000000000000000000000000000000000000000000000000000000000000000000000000000000000000000000000000000000000000000000000000000000000000000000000000000000000000000000000000000000000000000000000000000000000000000000000000000
310
00000000000000000000000000000000000000000000000000000000000000000000000100000000000100000000000001000000000000000000000000000000000000000001000000000000000000000000000000000000000000000000000000000000000000000000000000000000000000000000000000000000000000
310
00000000000000000000000000000000000000000000000000000000000000000000000000000000000000000000000000000000000000000000000000000000000000000000000000000000000000000000000000000100000001010101010000000000000101000101010101010101010101000000010000000100000000
310
00000000000000000000000000000000000000000000000000000000000000000000000000000000000000000000000000000000000000000000000000000000000000000000000000000000000000000000000000000000000000000000000000000000000000000000000000000000000000000000000000000000000000
310
00000000000000000000000100000100000100000100000000000001010001010101010101010101010000000000000101000000000000000000000000000000000000000000000000000000000000000000000000000000000000000000000000000000000000000000000000000000000000000000000000000000000000
310
00000000000000000000000000000000000000000000000000000000000000000000000000000000000000000000000000000000000000000000000000000100000001000000010000010000000000000100000101010101010101010100000000010101000001000000000000000000000000000000000000000000000000
310
00000000000000000000000000000000000000000000000000000000000000000000000000000000000000000000000000000000000000000000000000000000000000000000000000000000000000000000000000000000000000000000000000000000000000000000000000000000000001000000010100000001000001
310
00000000000001000000000101010101010000000000010000010000010000000000000000000000000000000000000000000000000000000000000000000000000000000000000000000000000000000000000000000000000000000000000000000000000000000000000000000000000000000000000000000000000000
310
00000000000000000000000000000000000000000000000000000000000000000000000000000000010000000101000000010000010000000000000100000001010000000001000000000000010001000000010000000000000000000000000000000000000000000000000000000000000000000000000000000000000000
310
00000000000000000000000000000000000000000000000000000000000000000000000000000000000000000000000000000000000000000000000000000000000000000000000000000000000000000000000000000000000000000000010100000001000001000001000000000001000001010001010101010100000000
310
00010101010101010100000000000000000000000000000000000000000000000000000000000000000000000000000000000000000000000000000000000000000000000000000000000000000000000000000000000000000000000000000000000000000000000000000000000000000000000000000000000000000000
310
00000000000000000000000000000000000000000000010100000101010000010000000000010000010001010101010101010100000101010101010101010000000000000000000000000000000000000000000000000000000000000000000000000000000000000000000000000000000000000000000000000000000000
310
00000000000000000000000000000000000000000000000000000000000000000000000000000000000000000000000000000000000000000000000000000000000000000000000000000000000101000000000001010101010101000000010101010101010101010000010100000000000100010000000000000000000000
310
00000000000000000000000000000000000000000000000000000000000000000000000000000000000000000000000000000000000000000000000000000000000000000000000000000000000000000000000000000000000000000000000000000000000000000000000000000000000000000000000000000000000000
310
00000000000101000000000100000001010000000001010100000000000000000101010101010101000100000000000000000000000000000000000000000000000000000000000000000000000000000000000000000000000000000000000000000000000000000000000000000000000000000000000000000000000000
310
00000000000000000000000000000000000000000000000000000000000000000000000000000000000000000000000000000000000000000000000001010000000000010101010101010001010100000000000100010100000000000000000100000000000000000000000000000000000000000000000000000000000000
310
00000000000000000000000000000000000000000000000000000000000000000000000000000000000000000000000000000000000000000000000000000000000000000000000000000000000000000000000000000000000000000000000000000000000000000000000000000000000000010101000001000000000000
310
00000000010101010101010101010000000000000001010100000000000000000000000000000000000000000000000000000000000000000000000000000000000000000000000000000000000000000000000000000000000000000000000000000000000000000000000000000000000000000000000000000000000000
310
00000000000000000000000000000000000000000000000000000000000000000000000000000000000001000000010101000000000000000000000000000000010101010001010000000001000000000000000000000000000000000000000000000000000000000000000000000000000000000000000000000000000000
310
00000000000000000000000000000000000000000000000000000000000000000000000000000000000000000000000000000000000000000000000000000000000000000000000000000000000000000000000000000000000000000000000100010100000100000000000000000000000000000000000101000001010101
310
00010000000000000000000000000000000000000000000000000000000000000000000000000000000000000000000000000000000000000000000000000000000000000000000000000000000000000000000000000000000000000000000000000000000000000000000000000000000000000000000000000000000000
310
00000000000000000000000000000000000000000101010000010001010101010000000000000001010101010001010101000100010001000000000000000000000000000000000000000000000000000000000000000000000000000000000000000000000000000000000000000000000000000000000000000000000000
310
00000000000000000000000000000000000000000000000000000000000000000000000000000000000000000000000000000000000000000000000000000000000000000000000000010001000000010000000001010101010101010000010101010101000100010000010100000000000000000000000000000000000000
310
00000000000000000000000000000000000000000000000000000000000000000000000000000000000000000000000000000000000000000000000000000000000000000000000000000000000000000000000000000000000000000000000000000000000000000000000000000000000000000000000000000000000001
310
00010101010101010000000000000001010101010001000001000001010101010101000000000000000000000000000000000000000000000000000000000000000000000000000000000000000000000000000000000000000000000000000000000000000000000000000000000000000000000000000000000000000000
310
00000000000000000000000000000000000000000000000000000000000000000000000000000000000000000000000000000000010001010101010101010000000000010100000000000100000100000101000001010100000000000000000000000000000000000000000000000000000000000000000000000000000000
310
00000000000000000000000000000000000000000000000000000000000000000000000000000000000000000000000000000000000000000000000000000000000000000000000000000000000000000000000000000000000000000000000000000000000000000001000100000000000100000000000001010000000000
310
01010000000000000001000000000000000000000000000000000000000000000000000000000000000000000000000000000000000000000000000000000000000000000000000000000000000000000000000000000000000000000000000000000000000000000000000000000000000000000000000000000000000000
310
00000000000000000000000000000000000000000000000000000000000000010001000000000001010000000000000101010101010101010101010101010000000000000000000000000000000000000000000000000000000000000000000000000000000000000000000000000000000000000000000000000000000000
310
00000000000000000000000000000000000000000000000000000000000000000000000000000000000000000000000000000000000000000000000000000000000000000000000000000000000000000000000001010101010101010101000000010101010000000101010101010000000100000000000000000000000000
310
00000000000000000000000000000000000000000000000000000000000000000000000000000000000000000000000000000000000000000000000000000000000000000000000000000000000000000000000000000000000000000000000000000000000000000000000000000000000000000000000000000000000000
310
00000000000000000000010101010101010101010101010101010101010100000000000000000000000000000000000000000000000000000000000000000000000000000000000000000000000000000000000000000000000000000000000000000000000000000000000000000000000000000000000000000000000000
310
00000000000000000000000000000000000000000000000000000000000000000000000000000000000000000000000000000000000000000000000000000000010000000000000000000000000100000000000000000000000000000000000000000000000000000000000000000000000000000000000000000000000000
310
00000000000000000000000000000000000000000000000000000000000000000000000000000000000000000000000000000000000000000000000000000000000000000000000000000000000000000000000000000000000000000000000000000000000000000000000000000000000000000000000000000000000000
310
00000000000000000000000000000000000000000000000000000000000000000000000000000000000000000000000000000000000000000000000000000000000000000000000000000000000000000000000000000000000000000000000000000000000000000000000000000000000000000000000000000000000000
310
00000000000000000000000000000000000000000000000000000000000000000000000000000000000000000000000000000000000000000000000000000000000000000000000000000000000000000000000000000000000000000000000000000000000000000000000000000000000000000000000000000000000000
310
00000000000000000000000000000000000000000000000000000000000000000000000000000000000000000000000000000000000000000000000000000000000000000000000000000000000000000000000000000000000000010101010101010101010000000000000000000000000000000000000000000000000000
310
00000000000000000000000000000000000000000000000000000000000000000000000000000000000000000000000000000000000000000000000000000000000000000000000000000000000000000000000000000000000000000000000000000000000000000000000000000000000000000000000000000000000000
310
00000000000000000000000000000000010101010101010101010100000000000000000000000000000000000000000000000000000000000000000000000000000000000000000000000000000000000000000000000000000000000000000000000000000000000000000000000000000000000000000000000000000000
310
00000000000000000000000000000000000000000000000000000000000000000000000000000000000000000000000000000000000000000000000000000000000000000001000000000000000000010000000000000000000000000000000000000000000000000000000000000000000000000000000000000000000000
310
00000000000000000000000000000000000000000000000000000000000000000000000000000000000000000000000000000000000000000000000000000000000000000000000000000000000000000000000000000000000000000000000000000000000000000000000000000000000000000000000000000100000000
310
00000000000100000000000000000000000000000000000000000000000000000000000000000000000000000000000000000000000000000000000000000000000000000000000000000000000000000000000000000000000000000000000000000000000000000000000000000000000000000000000000000000000000
310
00000000000000000000000000000000000000000000000000000000000000000000000000000000000000000000000001000001010101010000010000000000000000000000000000000000000000000000000000000000000000000000000000000000000000000000000000000000000000000000000000000000000000
310
00000000000000000000000000000000000000000000000000000000000000000000000000000000000000000000000000000000000000000000000000000000000000000000000000000000000000000000000000000000000000000000000000000000000100000100000001000001000000000000000000000000000000
310
00000000000000000000000000000000000000000000000000000000000000000000000000000000000000000000000000000000000000000000000000000000000000000000000000000000000000000000000000000000000000000000000000000000000000000000000000000000000000000000000000000000000000
310
00000000000000000000000000000000000000000000000000000001000001000000010000010000000000000000000000000000000000000000000000000000000000000000000000000000000000000000000000000000000000000000000000000000000000000000000000000000000000000000000000000000000000
310
00000000000000000000000000000000000000000000000000000000000000000000000000000000000000000000000000000000000000000000000000000000000000000000000000000000000000000100000100000001000001000000000000000000000000000000000000000000000000000000000000000000000000
310
00000000000000000000000000000000000000000000000000000000000000000000000000000000000000000000000000000000000000000000000000000000000000000000000000000000000000000000000000000000000000000000000000000000000000000000000000000000000000000000000000000000000000
310
00000000000001000001000000010000010000000000000000000000000000000000000000000000000000000000000000000000000000000000000000000000000000000000000000000000000000000000000000000000000000000000000000000000000000000000000000000000000000000000000000000000000000
310
00000000000000000000000000000000000000000000000000000000000000000000000000000000000000000000000000000000000000000000000100000100000001000001000000000000000000000000000000000000000000000000000000000000000000000000000000000000000000000000000000000000000000
310
00000000000000000000000000000000000000000000000000000000000000000000000000000000000000000000000000000000000000000000000000000000000000000000000000000000000000000000000000000000000000000000000000000000000000000000000000000000010000010000000100000100000000
310
00000000000000000000000000000000000000000000000000000000000000000000000000000000000000000000000000000000000000000000000000000000000000000000000000000000000000000000000000000000000000000000000000000000000000000000000000000000000000000000000000000000000000
310
00000000000000000000000000000000000000000000000000000000000000000000000000000100000101010101000001000000000000000000000000000000000000000000000000000000000000000000000000000000000000000000000000000000000000000000000000000000000000000000000000000000000000
310
00000000000000000000000000000000000000000000000000000000000000000000000000000000000000000000000000000000000000000000000000000000000000000000000000000000000000000000000000000000000000010000000000000000000100000000000000000000000000000000000000000000000000
310
00000000000000000000000000000000000000000000000000000000000000000000000000000000000000000000000000000000000000000000000000000000000000000000000000000000000000000000000000000000000000000000000000000000000000000000000000000000000000000000000000000000000000
310
00000000000000000000000000000000000100000000010000000001000000000000000000000000000000000000000000000000000000000000000000000000000000000000000000000000000000000000000000000000000000000000000000000000000000000000000000000000000000000000000000000000000000
310
00000000000000000000000000000000000000000000000000000000000000000000000000000000000000000000000000000000000000000000000000000000000000000000010000000000000000000100000000000000000000000000000000000000000000000000000000000000000000000000000000000000000000
310
00000000000000000000000000000000000000000000000000000000000000000000000000000000000000000000000000000000000000000000000000000000000000000000000000000000000000000000000000000000000000000000000000000000000000000000000000000000000000000000000000000001000000
310
00000000000001000000000000000000000000000000000000000000000000000000000000000000000000000000000000000000000000000000000000000000000000000000000000000000000000000000000000000000000000000000000000000000000000000000000000000000000000000000000000000000000000
310
00000000000000000000000000000000000000000000000000000000000000000000000000000000000000000000000000010000000000000000000100000000000000000000000000000000000000000000000000000000000000000000000000000000000000000000000000000000000000000000000000000000000000
310
00000000000000000000000000000000000000000000000000000000000000000000000000000000000000000000000000000000000000000000000000000000000000000000000000000000000000000000000000000000000000000000000000000000000001000000000000000000010000000000000000000000000000
310
00000000000000000000000000000000000000000000000000000000000000000000000000000000000000000000000000000000000000000000000000000000000000000000000000000000000000000000000000000000000000000000000000000000000000000000000000000000000000000000000000000000000000
310
00000000000000000000000000000000000000000000000000000000010101010101010101010100000000000000000000000000000000000000000000000000000000000000000000000000000000000000000000000000000000000000000000000000000000000000000000000000000000000000000000000000000000
310
00000000000000000000000000000000000000000000000000000000000000000000000000000000000000000000000000000000000000000000000000000000000000000000000000000000000000000000000000000000000000000000000000000000000000000000000000000000000000000000000000000000000000
310
000000000000000000000000000000000000000000000000000000000000000000000000000000000000000000000000000000000000000000000000000000000000000000000000000000000000000000000000000000000000000000000000000000000000000000000000
  0
ENDSEC
  0
EOF
